Thursday

I Am The Killer

Thursday

tabs

save to print version add songbook text version e-mail correct tuner
chordsukulelecavacokeyboardtabbassdrumsharmonicaflute Guitar Pro
close

there isn't a video lesson for this song

chords

I Am The Killer

	  		Tabber: Jefe the efe the ATD-I chap 
Tuning: Drop D 
 
Very cool song. Joel likes it too don?t you joel? Anyways..hope you like it thanks. Bye. 
 
E|-----------3---|  
B|--5------------|  
G|--x------------| 3x  
D|--0--2-2-3-----|  
A|--0------------|  
D|--0------------|  
 
E|---------------|  
B|---5-----------|  
G|---x-----------|  
D|---0---2---3---|  
A|---0---2---3---|  
D|---0---2---3---|  
 
E|----------------------------------------|  
B|-------6---5--------------6--5--8-------|  
G|-------7---7--------------7--7--7-------| 2x  
D|--000----------8----000-------------8---|  
A|--000----------8----000-------------8---|  
D|--000----------8----000-------------8---|  
 
E|-----------3---|  
B|--5------------|  
G|--x------------| 4x  
D|--0--2-2-3-----|  
A|--0------------|  
D|--0------------|  
 
Guitar One  
E|-----------------------------------|  
B|-----------------------------------|  
G|--7--6--7--6--12--6--7~------------|  
D|-----------------------------------|  
A|--5--4--5--4--10--4--5~------------|  
D|-----------------------------------|  
 
Guitar Two  
E|-----------------------------------|  
B|-----------------------------------|  
G|---------------------7---9---14~---|  
D|-----------------------------------|  
A|---------------------5---7---12~---|  
D|-----------------------------------|  
 
E|------------------------|  
B|------------------------|  
G|------------------------| 2x  
D|--0---2--8--0---22--8---|  
A|--0---2--8--0---22--8---|  
D|--0---2--8--0---22--8---|  
 
E|----------------------------------------|  
B|-------6---5--------------6--5--8-------|  
G|-------7---7--------------7--7--7-------| 2x  
D|--000----------8----000-------------8---|  
A|--000----------8----000-------------8---|  
D|--000----------8----000-------------8---|  
 
E|------------------------|  
B|------------------------|  
G|------------------------| 3x  
D|--0---2--8--0---22--8---|  
A|--0---2--8--0---22--8---|  
D|--0---2--8--0---22--8---|  
 
E|----------------------|  
B|----------------------|  
G|----------------------|  
D|--0~---0~---0~---0~---|  
A|--0~---0~---0~---0~---|  
D|--0~---0~---0~---0~---|  
 
Guitar One  
E|--------------------------|  
B|--------------------------|  
G|-10--------10-9-7-7-------| 4x  
D|--10---0---0--0-0-8---0---|  
A|---10--0--------------0---|  
D|-------0--------------0---|  
 
Guitar Two (over last 3x)  
E|-------------------------|  
B|-------------------------|  
G|--10-------10-9-12-------| 3x  
D|---10----------------0---|  
A|----10---------------0---|  
D|---------------------0---|  
 
Bass  
E|--------------|  
B|--------------|  
G|--------------| 11x  
D|--------------|  
A|--------------|  
D|--0-----5--8--|  
 
Guitar (starts on end of 6th time of bass thing)  
E|----------------------------------------------------------------------|  
B|----------------------------------------------------------------------|  
G|--7--10-------7--10-------7--10-------7--10-------7--10-------7--10---|  
D|--5--8----0---5--8----0---5--8----0---5--8----0---5--8----0---5--8----|  
A|--5--8----0---5--8----0---5--8----0---5--8----0---5--8----0---5--8----|  
D|--5--8----0---5--8----0---5--8----0---5--8----0---5--8----0---5--8----|  
 
Guitar 2 (0ver last 2 times)  
E|---------------------------------------|  
B|---------------------------------------|  
G|--14----12----10---14----17---15--14---|  
D|---------------------------------------|  
A|--12----10----8----12----15---13--12---|  
D|---------------------------------------|  
 
E|-----------3---|  
B|--5------------|  
G|--x------------| 4x  
D|--0--2-2-3-----|  
A|--0------------|  
D|--0------------|  
 
E|---------------------------|  
B|---------------------------|  
G|---------------------------|  
D|--00--0--0--00--0--0--00---|  
A|--00--0--0--00--0--0--00---|  
D|--00--0--0--00--0--0--00---| 
 

		  

Full key step upFull key step up
Half key step upHalf key step up
Half key step downHalf key step down
Full key step downFull key step down
hide glossary

See also:

tabs Van Halen - Pretty Woman tabs Guns N' Roses - Wild Horses tabs The Doors - People Are Strange tabs Guns N' Roses - Sweet Child o' mine tabs Jack Johnson - Good People tabs Simon & Garfunkel - Sounds of silence
e-chords

Other versions:

tabs Thursday - I Am The Killer
auto scroll beats size up size down change color hide chords drawings
tab show chords e-chords YouTube Clip e-chords hide all tabs e-chords go to top tab

share