Thursday

Autobiography Of A Nation

Thursday

tabs

save to print version add songbook text version e-mail correct tuner
chordsukulelecavacokeyboardtabbassdrumsharmonicaflute Guitar Pro
close

there isn't a video lesson for this song

chords

Autobiography Of A Nation

	  		Thursday ? Autobiography Of A Nation 
 
Drop D Tuning 
 
X2	0:00-0:27 
|---------------------------------------------------------------------------|  
|--15-----13-----10-----10-----13-----11-----8------10----------------------|  
|--14-----14-----7------10--------------------------------------------------|  
|--12-----12-----7------7------10-----10-----5------7-----------------------|  
|---------------------------------------------------------------------------|  
|---------------------------------------------------------------------------|  
 
x2	0:28-0:56 
|---------------------------------------------------------------------------|  
|--15-----13-----10--------11---13-----11----10--------11-------------------|  
|--14-----14-----10--------10---14-----10----10--------10-------------------|  
|--12-----12-----7---------7----12-----7-----7---------7--------------------|  
|---------------------------------------------------------------------------|  
|---------------------------------------------------------------------------|  
 
x4	0:56-1:03 
|---------------------------------------------------------------------------|  
|------10------10-----------------------------------------------------------|  
|----------10---------------------------------------------------------------|  
|---7-----------------------------------------------------------------------|  
|---------------------------------------------------------------------------|  
|---------------------------------------------------------------------------|  
 
x1	1:04-1:27 
|---------------------------------------------------------------------------|  
|---------------------------------------------------------------------------|  
|------------------10-10-10-10-12-12-12-12----------------------------------|  
|--8-8-8-8-8-8-8-8--------------------------8-8-8-8-8-8-8-8-0-0-0-0-0-0-0-0-|  
|--8-8-8-8-8-8-8-8-8--8--8--8--10-10-10-10--8-8-8-8-8-8-8-8-0-0-0-0-0-0-0-0-|  
|--8-8-8-8-8-8-8-8--------------------------8-8-8-8-8-8-8-8-0-0-0-0-0-0-0-0-|  
 
|---------------------------------------------------------------------------|  
|---------------------------------------------------------------------------|  
|------------------10-10-10-10-12-12-12-12----------------------------------|  
|--8-8-8-8-8-8-8-8----------------------------8-8-8-8-8-8-8-8---------------|  
|--8-8-8-8-8-8-8-8-8--8--8--8--10-10-10-10----8-8-8-8-8-8-8-8---------------|  
|--8-8-8-8-8-8-8-8----------------------------8-8-8-8-8-8-8-8---------------|  
 
x1	1:27-1:37 
|---------------------------------------------------------------------------|  
|----------10b---------10b-------10b-------10b-------10b-------10b----------|  
|----------12b---------12b-------12b-------12b-------12b-------12b----------|  
|--8-8-8-8-----8-8-8-8-----0-0-0-----0-0-0-----0-0-0-----0-0-0--------------|  
|--8-8-8-8-----8-8-8-8-----0-0-0-----0-0-0-----0-0-0-----0-0-0--------------|  
|--8-8-8-8-----8-8-8-8-----0-0-0-----0-0-0-----0-0-0-----0-0-0--------------|  
 
x1	1:37-2:00 
|---------------------------------------------------------------------------|  
|---------------------------------------------------------------------------|  
|------------------10-10-10-10-12-12-12-12----------------------------------|  
|--8-8-8-8-8-8-8-8--------------------------8-8-8-8-8-8-8-8-0-0-0-0-0-0-0-0-|  
|--8-8-8-8-8-8-8-8-8--8--8--8--10-10-10-10--8-8-8-8-8-8-8-8-0-0-0-0-0-0-0-0-|  
|--8-8-8-8-8-8-8-8--------------------------8-8-8-8-8-8-8-8-0-0-0-0-0-0-0-0-|  
 
|---------------------------------------------------------------------------|  
|---------------------------------------------------------------------------|  
|------------------10-10-10-10-12-12-12-12----------------------------------|  
|--8-8-8-8-8-8-8-8----------------------------8-8-8-8-8-8-8-8---------------|  
|--8-8-8-8-8-8-8-8-8--8--8--8--10-10-10-10----8-8-8-8-8-8-8-8---------------|  
|--8-8-8-8-8-8-8-8----------------------------8-8-8-8-8-8-8-8---------------|  
 
x1	2:00-2:09 
|---------------------------------------------------------------------------|  
|----------10b---------10b-------10b-------10b-------10b-------10b----------|  
|----------12b---------12b-------12b-------12b-------12b-------12b----------|  
|--8-8-8-8-----8-8-8-8-----0-0-0-----0-0-0-----0-0-0-----0-0-0--------------|  
|--8-8-8-8-----8-8-8-8-----0-0-0-----0-0-0-----0-0-0-----0-0-0--------------|  
|--8-8-8-8-----8-8-8-8-----0-0-0-----0-0-0-----0-0-0-----0-0-0--------------|  
 
x2	2:10-2:22 
|---8------6------5---------------------------------------------------------|  
|---6------6------6---------------------------------------------------------|  
|---------------------------------------------------------------------------|  
|---------------------------------------------------------------------------|  
|---------------------------------------------------------------------------|  
|---------------------------------------------------------------------------|  
 
x4	2:22-2:48 
|---6------8------5---------------------------------------------------------|  
|-----6------6------6-------------------------------------------------------|  
|---------------------------------------------------------------------------|  
|---------------------------------------------------------------------------|  
|---------------------------------------------------------------------------|  
|---------------------------------------------------------------------------|  
 
x2	2:48-3:14 
|---------------------------------------------------------------------------|  
|---------------------------------------------------------------------------|  
|---------------------------------------------------14-14-14-14-15-15-15-15-|  
|--8-8-8-8-8-8-8-8-0-0-0-0-0-0-0-0--8-8-8-8-8-8-8-8-------------------------|  
|--8-8-8-8-8-8-8-8-0-0-0-0-0-0-0-0--8-8-8-8-8-8-8-8-12-12-12-12-13-13-13-13-|  
|--8-8-8-8-8-8-8-8-0-0-0-0-0-0-0-0--8-8-8-8-8-8-8-8-------------------------|  
 
X4	3:14-3:39 
|---------------------------------------------------------------------------|  
|---------------------------------------------------------------------------|  
|--14--14--14--14--12--12--12--12-------------------------------------------|  
|-----------------------------------5--5--5--5---8--8--8--8-----------------|  
|--12--12--12--12--10--10--10--10---5--5--5--5---8--8--8--8-----------------|  
|-----------------------------------5--5--5--5---8--8--8--8-----------------|  
 
x1	3:39-3:52 
|---------------------------------------------------------------------------|  
|---------------------------------------------------------------------------|  
|-----5---------5-----5---------5-----12---------12/14-----17---------17-17-|  
|--0-----0-0-0-----0-----0-0-0-----0------0-0-0---------0------0-0-0--------|  
|--0--3--0-0-0--3--0--3--0-0-0--3--0--10--0-0-0--10/12--0--15--0-0-0--15-15-|  
|--0-----0-0-0-----0-----0-0-0-----0------0-0-0---------0------0-0-0--------|  
 
 
what a great song! im pretty sure the other tab that was already there is perfectly accurate, but this is the way i play the song. thursday uses 2 guitars and there is only one of me, so i try to incorporate both sounds into one part. any questions or comments? email me at [email protected] or AIM: redakk 
 

		  

Full key step upFull key step up
Half key step upHalf key step up
Half key step downHalf key step down
Full key step downFull key step down
hide glossary

See also:

tabs Simon & Garfunkel - Sounds of silence tabs The Strokes - Juicebox tabs John Mayer - Belief tabs Guns N' Roses - Sweet Child o' mine tabs Guns N' Roses - November Rain tabs Foo Fighters - Everlong (acústico)
e-chords

Other versions:

tabs Thursday - Autobiography Of A Nation
auto scroll beats size up size down change color hide chords drawings
tab show chords e-chords YouTube Clip e-chords hide all tabs e-chords go to top tab

share