Thursday

Arc Lamps Signal Flares A Shower Of White The Light

Thursday

tabs

by  VSWORLD

save to print version add songbook text version e-mail correct tuner
chordsukulelecavacokeyboardtabbassdrumsharmonicaflute Guitar Pro
close

there isn't a video lesson for this song

chords

Arc Lamps Signal Flares A Shower Of White The Light

	  		Tuning: DADGBE 

Organ: F     A#     D     C 
e|-------------------------------| 
B|-------------------------------| 
G|-------------------------------| 
D|-----10----15-----7-----5------| (Repeat throughout song) 
A|-----8-----13-----5-----3------| 
D|-------------------------------| 

Guitar 1: (:53) 
e|--------------------------------------| 
B|--------------------------------------| 
G|-5---5---10---10---2---2--------------| 
D|---3---3----8----8---0---0---5---5----| (Repeat until 2:15) 
A|-------------------------------3---3--| 
D|--------------------------------------| 

Guitar 2 (feedback) copies the Organ's chords, they're way out of sync 
		  

Full key step upFull key step up
Half key step upHalf key step up
Half key step downHalf key step down
Full key step downFull key step down
hide glossary

See also:

tabs Chuck Berry - Johnny B. Goode tabs The Offspring - Come Out and Play tabs Creed - With arms wide open tabs Jack Johnson - Do You Remember tabs Guns N' Roses - November Rain tabs Bon Jovi - Always
e-chords

Other versions:

tabs Thursday - Arc Lamps Signal Flares A Shower Of White The Light
auto scroll beats size up size down change color hide chords drawings
tab show chords e-chords YouTube Clip e-chords hide all tabs e-chords go to top tab

share