Thursday

A Hole In The World (ver. 2)

Thursday

tabs

save to print version add songbook text version e-mail correct tuner
chordsukulelecavacokeyboardtabbassdrumsharmonicaflute Guitar Pro
close

there isn't a video lesson for this song

chords

A Hole In The World (ver. 2)

	  		 
A HOLE IN THE WORLD- Thursday  
-------------------------------------------------------------------------------  
By: S2  
 
Listen to the song for how many times to play each note and when to palm mute  
 
Intro:  
e|-----0-------|  
B|---6--6-6----|  
G|--5-5--5-----|  
D|-3-----------|  
A|-------------|  
D|-------------|  
 
e|--------------------------|------------------  
B|--------------------------|------------------  
G|--------10-----10--12--10-|---9h10-9h10-9h10-  
D|-3-5-0--10--0-------------|-0----------------  
A|-3-5-0--8---0--8---8---8--|-0----------------  
D|-3-5-0------0-------------|-0----------------  
 
Guitar 1: ...start again ...these notes will fold themselves  
|  
| Gt.2 octaves played over Gt.1  
\|/  
e|------------------------|-------|----------|-----------|-------------------  
B|------------(2x)--------|------- |----------|-----------|---------this part-  
G|------------------------|------- |-10--9--5-|-10--9--14-|-9h10-9-threetimes-  
D|-5-55-55-55-55--8--3--0-|-3-5-0- |----------|-----------|-0----0------------  
A|-5-55-55-55-55--8--3--0-|-3-5-0- |-8---7--3-|-8---7--12-|-------------------  
D|-5-55-55-55-55--8--3--0-|-3-5-0- |----------|-----------|-------------------  
 
 
...standing at the margin's edge to see where the daybreak ends  
e|--------------------------|  
B|--------------------------|  
G|--------------------------|  
D|-5--8--3--55-55-55-55-----|  
A|-5--8--3--55-55-55-55-----|  
D|-5--8--3--55-55-55-55-----|  
 
 
...we fell into this hole  
e|------------------------|--------|  
B|------------------------|--------|  
G|------------------------|--------|  
D|-3-5-0-3----------------|-3-5-0--|  
A|-3-5-0-3----------------|-3-5-0--|  
D|-3-5-0-3----------------|-3-5-0--|  
 
 
...adjust the aperture to focus on the negative  
e|----------| |------------  
B|---(2x)---| |------------  
G|----------| (just before quiet part |-10--9--5---  
D|-5-8-0-3--| play these octaves) |------------  
A|-5-8-0-3--| |-8---7--3---  
D|-5-8-0-3--| |------------  
 
 
(quiet part)  
 
Gt.1 Gt.2  
e|---------|------0---------------------  
B|---------|----6--6-6------------------  
G|---------|---5-6--5-----(intro)-------  
D|---------|--3-------------------------  
A|-888-77--|----------------------------  
D|-000-00--|----------------------------  
 
 
screaming part  
e|--------------------------|  
B|--(4x)-----------(4x)-----|  
G|--------------------------|  
D|-000-00--pause--000-00----|  
A|-000-00---------000-00----|  
D|-000-00---------000-00----| 
 

		  

See also:

tabs Chuck Berry - Johnny B. Goode tabs The Offspring - Come Out and Play tabs Creed - With arms wide open tabs Jack Johnson - Do You Remember tabs Guns N' Roses - November Rain tabs Bon Jovi - Always
e-chords

Other versions:

tabs Thursday - A Hole In The World tabs Thursday - A Hole In The World (ver. 2)
auto scroll beats size up size down change color hide chords drawings
tab show chords e-chords YouTube Clip e-chords hide all tabs e-chords go to top tab

share