Thursday

A Hole In The World

Thursday

tabs

save to print version add songbook text version e-mail correct tuner
chordsukulelecavacokeyboardtabbassdrumsharmonicaflute Guitar Pro
close

there isn't a video lesson for this song

chords

A Hole In The World

	  		Thursday ? A Hole In The World 
 
Drop D Tuning 
 
4x 	0:00-0:05 
|---------------0-----------------------------------------------------------|  
|---------6--------6-----6--------------------------------------------------|  
|------5-----5--------5-----------------------------------------------------|  
|---3-----------------------------------------------------------------------|  
|---------------------------------------------------------------------------|  
|---------------------------------------------------------------------------|  
 
3x	0:06-0:32 
|---------------------------------------------------------------------------|  
|---------------------------------------------------------------------------|  
|---------------------------------------------------------------------------|  
|--3-3-3-3-3-3-3-3-3-3-3-3----5-5-5-5-5-5-5-5-5-5-5-5----0-0-0-0-0-0--------|  
|--3-3-3-3-3-3-3-3-3-3-3-3----5-5-5-5-5-5-5-5-5-5-5-5----0-0-0-0-0-0--------|  
|--3-3-3-3-3-3-3-3-3-3-3-3----5-5-5-5-5-5-5-5-5-5-5-5----0-0-0-0-0-0--------|  
                                                    . . . . . . 
 
|---------------------------------------------------------------------------|  
|---------------------------------------------------------------------------|  
|--9--9--9--10-10-10------------------12--10--9--10--9----------------------|  
|--10-10-10-10-10-10---0-0-0-0-0-0----------------------10------------------|  
|--8--8--8--8--8--8----0-0-0-0-0-0------------------------------------------|  
|----------------------0-0-0-0-0-0------------------------------------------|  
		      . . . . . . 
1x	0:33-0:42 
|---------------------------------------------------------------------------|  
|---------------------------------------------------------------------------|  
|---------------------------------------------------------------------------|  
|--3-3-3-3-3-3-3-3-3-3-3-3----5-5-5-5-5-5-5-5-5-5-5-5----0-0-0-0-0-0--------|  
|--3-3-3-3-3-3-3-3-3-3-3-3----5-5-5-5-5-5-5-5-5-5-5-5----0-0-0-0-0-0--------|  
|--3-3-3-3-3-3-3-3-3-3-3-3----5-5-5-5-5-5-5-5-5-5-5-5----0-0-0-0-0-0--------|  
									        . . . . . .  
 
|---------------------------------------------------------------------------|  
|---------------------------------------------------------------------------|  
|--9h10-9h10-9h10-------------------9h10-9h10-9h10--------------------------|  
|-------------------0-0-0-0-0-0---------------------------------------------|  
|-------------------0-0-0-0-0-0---------------------------------------------|  
|-------------------0-0-0-0-0-0---------------------------------------------| 		   		   . . . . . . 
1x	0:42-1:11 
|---------------------------------------------------------------------------|  
|---------------------------------------------------------------------------|  
|-------------------------------10-10-10-10-10-10-10-9--9--9--9--9--9--9--9-|  
|---5-5--5-5--5-5--5-5--3--3-3--8--8--8--8--8--8--8--8--8--8--8--8--8--8--8-|  
|---5-5--5-5--5-5--5-5--3--3-3--8--8--8--8--8--8--8--8--8--8--8--8--8--8--8-|  
|---5-5--5-5--5-5--5-5--3--3-3--8--8--8--8--8--8--8--8--8--8--8--8--8--8--8-|  
 
 
 
 
 
 
|---------------------------------------------------------------------------|  
|---------------------------------------------------------------------------|  
|----------------------------------------------9h10-9------------9h10-9-----|  
|---3-3-3-3-3-3-3-3---5-5-5-5-5-5-5-5---0--0---0----0-----0--0---0----0-----|  
|---3-3-3-3-3-3-3-3---5-5-5-5-5-5-5-5---0--0--------------0--0--------------|  
|---3-3-3-3-3-3-3-3---5-5-5-5-5-5-5-5---0--0--------------0--0--------------|  
 
|---------------------------------------------------------------------------|  
|---------------------------------------------------------------------------|  
|-------------------------------10-10-10-10-10-10-10-12-12-12-12-12-12-12-12|  
|---5-5--5-5--5-5--5-5--3--3-3--8--8--8--8--8--8--8--8--8--8--8--8--8--8--8-|  
|---5-5--5-5--5-5--5-5--3--3-3--8--8--8--8--8--8--8--8--8--8--8--8--8--8--8-|  
|---5-5--5-5--5-5--5-5--3--3-3--8--8--8--8--8--8--8--8--8--8--8--8--8--8--8-|  
 
|---------------------------------------------------------------------------|  
|---------------------------------------------------------------------------|  
|----------------------------------------------9h10-9------------9h10-9-----|  
|---3-3-3-3-3-3-3-3---5-5-5-5-5-5-5-5---0--0---0----0-----0--0---0----0-----|  
|---3-3-3-3-3-3-3-3---5-5-5-5-5-5-5-5---0--0--------------0--0--------------|  
|---3-3-3-3-3-3-3-3---5-5-5-5-5-5-5-5---0--0--------------0--0--------------|  
 
|---------------------------------------------------------------------------|  
|---------------------------------------------------------------------------|  
|----------------------------------------------9h10-9------------9h10-9-----|  
|---3-3-3-3-3-3-3-3---5-5-5-5-5-5-5-5---0--0---0----0-----0--0---0----0-----|  
|---3-3-3-3-3-3-3-3---5-5-5-5-5-5-5-5---0--0--------------0--0--------------|  
|---3-3-3-3-3-3-3-3---5-5-5-5-5-5-5-5---0--0--------------0--0--------------|  
 
1x	1:12-1:23 
|---------------------------------------------------------------------------|  
|---------------------------------------------------------------------------|  
|---------------------------------------------------------------------------|  
|-5-5-5-5-5-5-5--8-8-8-8-8-8-8-8--3-3-3-3-3-3-3-3--5-5--5-5-5--5-5-5--5-5-5-|  
|-5-5-5-5-5-5-5--8-8-8-8-8-8-8-8--3-3-3-3-3-3-3-3--5-5--5-5-5--5-5-5--5-5-5-|  
|-5-5-5-5-5-5-5--8-8-8-8-8-8-8-8--3-3-3-3-3-3-3-3--5-5--5-5-5--5-5-5--5-5-5-| 
 
x3	1:24-1:41 
|---------------------------------------------------------------------------|  
|---------------------------------------------------------------------------|  
|--10-10--9-9-9---10-10-10--9-9-9---10-10-10--9-9-9---10-10-10--9-9-9-------|  
|--8--8---8-8-8---8--8--8---8-8-8---8--8--8---8-8-8---8--8--8---8-8-8-------|  
|--8--8---8-8-8---8--8--8---8-8-8---8--8--8---8-8-8---8--8--8---8-8-8-------|  
|--8--8---8-8-8---8--8--8---8-8-8---8--8--8---8-8-8---8--8--8---8-8-8-------| 
 
x2	1:42-1:53 
|---------------------------------------------------------------------------|  
|---------------------------------------------------------------------------|  
|----------------------------------------------9h10-9------------9h10-9-----|  
|---3-3-3-3-3-3-3-3---5-5-5-5-5-5-5-5---0--0---0----0-----0--0---0----0-----|  
|---3-3-3-3-3-3-3-3---5-5-5-5-5-5-5-5---0--0--------------0--0--------------|  
|---3-3-3-3-3-3-3-3---5-5-5-5-5-5-5-5---0--0--------------0--0--------------|  
 
 
 
 
 
 
x1	1:54-2:22 
|---------------------------------------------------------------------------|  
|---------------------------------------------------------------------------|  
|---------------------------------------------------------------------------|  
|-8-8-8-8-8-8-8-8---7-7-7-7-7-7-10-10---8-8-8-8-8-8-8-8---8-8-8-8-8-8--7-7--|  
|-8-8-8-8-8-8-8-8---7-7-7-7-7-7-10-10---8-8-8-8-8-8-8-8---8-8-8-8-8-8--7-7--|  
|-8-8-8-8-8-8-8-8---7-7-7-7-7-7-10-10---8-8-8-8-8-8-8-8---8-8-8-8-8-8--7-7--| 
							  . . . . . . . . 
 
|---------------------------------------------------------------------------|  
|---------------------------------------------------------------------------|  
|---------------------------------------------------------------------------|  
|-8-8-8-8-8-8-8-8---7-7-7-7-7-7-10-10---8-8-8-8-8-8-8-8---8-8-8-8--7-7-7-7--|  
|-8-8-8-8-8-8-8-8---7-7-7-7-7-7-10-10---8-8-8-8-8-8-8-8---8-8-8-8--7-7-7-7--|  
|-8-8-8-8-8-8-8-8---7-7-7-7-7-7-10-10---8-8-8-8-8-8-8-8---8-8-8-8--7-7-7-7--| 
							  . . . . . . . . 
 
|---------------------------------------------------------------------------|  
|---------------------------------------------------------------------------|  
|--------------------10----9-----5------------------------------------------|  
|--8-----7-----3------------------------------------------------------------|  
|--8-----7-----3-----8-----7-----3------------------------------------------|  
|--8-----7-----3------------------------------------------------------------| 
 
x2	2:22-2:50 
|----------------------------------------------------------------------------|  
|----------------------------------------------------------------------------|  
|----------------------------------------------------------------------------|  
|----------------------------------------------------------------------------|  
|-8-8-8--7-7---8-8-8--7-7---8-8-8--7-7---8-8-8--7-7---5-5-5--5-5---8-8-8--8-8|  
|-0-0-0--0-0---0-0-0--0-0---0-0-0--0-0---0-0-0--0-0---0-0-0--0-0---0-0-0--0-0| 
 
x1	2:27			   2:36 
|-----------------------------------12--------------------------------------|  
|-13--11--10--8--6-------13-----13------13---11--10--8----------------------|  
|---------------------------------------------------------10----10--12--10--|  
|---------------------------------------------------------------------------|  
|---------------------------------------------------------------------------|  
|---------------------------------------------------------------------------| 
 
    2:45 
|---------------12------12--------------------------------------------------|  
|---13------13------13--------13---11---8---10------------------------------|  
|---------------------------------------------------------------------------|  
|---------------------------------------------------------------------------|  
|---------------------------------------------------------------------------|  
|---------------------------------------------------------------------------| 
 
X8	2:36-2:54 
|---------------5-----------------------------------------------------------|  
|---------6--------6-----6--------------------------------------------------|  
|------5-----5--------5-----------------------------------------------------|  
|---3-----------------------------------------------------------------------|  
|---------------------------------------------------------------------------|  
|---------------------------------------------------------------------------|  
 
 
x2	2:50-2:58 
|---------------------------------------------------------------------------|  
|---------------------------------------------------------------------------|  
|---------------------------------------------------------------------------|  
|---------------------------------------------------------------------------|  
|---8-8-8--7-7-----8-8-8--7-7-----------------------------------------------|  
|---0-0-0--0-0-----0-0-0--0-0-----------------------------------------------| 
 
x2	2:59-3:17 
|---------------------------------------------------------------------------|  
|---------------------------------------------------------------------------|  
|---------------------------------------------------------------------------|  
|---0-0-0-0------0-0-0-0-----0-0-0-0-----0-0-0-0----------------------------|  
|---0-0-0-0------0-0-0-0-----0-0-0-0-----0-0-0-0----------------------------|  
|---0-0-0-0------0-0-0-0-----0-0-0-0-----0-0-0-0----------------------------| 
 
x1	3:17 
|---------------------------------------------------------------------------|  
|---13-------11----10------8-------6----------------------------------------|  
|---------------------------------------------------------------------------|  
|---------------------------------------------------------------------------|  
|---------------------------------------------------------------------------|  
|---------------------------------------------------------------------------| 
 
Thursday uses 2 guitars but theres only one of me so this is how i play it to try and incorporate both sounds.  any questions or comments?  email me at [email protected] or AIM: redakk  enjoy! 
 

		  

Full key step upFull key step up
Half key step upHalf key step up
Half key step downHalf key step down
Full key step downFull key step down
hide glossary

See also:

tabs Simon & Garfunkel - Sounds of silence tabs The Strokes - Juicebox tabs John Mayer - Belief tabs Guns N' Roses - Sweet Child o' mine tabs Guns N' Roses - November Rain tabs Foo Fighters - Everlong (acústico)
e-chords

Other versions:

tabs Thursday - A Hole In The World tabs Thursday - A Hole In The World (ver. 2)
auto scroll beats size up size down change color hide chords drawings
tab show chords e-chords YouTube Clip e-chords hide all tabs e-chords go to top tab

share