Three Doors Down

Sarah Yellin

Three Doors Down

tabs

save to print version add songbook text version e-mail correct tuner
chordsukulelecavacokeyboardtabbassdrumsharmonicaflute Guitar Pro
close

there isn't a video lesson for this song

chords

Sarah Yellin

	  		 
INTRO: 
  (x8) 
E--------------------------------------------------------------------------------- 
B--------------------------------------------------------------------------------- 
G--------------------------------------------------------------------------------- 
D---------------2---4------------2--4---------------10--9--7--------------------- 
A---4---4-------2---4------------2--4---------------10--9--7---------------------- 
E---2---2-------0---2------------0--2----------------8--7--5--------------------- 
 
 
VERSO 
  (X4) 
E--------------------------------------------------------------------------------- 
B--------------------------------------------------------------------------------- 
G-------------------------------------------------------------------------------- 
D----4-4-4-4-4-4-4-4--------10-10-10-10-------9-9-9-9---------------------------- 
A----4-4-4-4-4-4-4-4--------10-10-10-10-------9-9-9-9---------------------------- 
E----2-2-2-2-2-2-2-2--------8--8--8--8--------7-7-7-7---------------------------- 
 
 
E--------------------------------------------------------------------------------- 
B--------------------------------------------------------------------------------- 
G--------------------------------------------------------------------------------- 
D----4--------------------------------10---10----------9----9--------------------- 
A----4------4--4--4--4--4--4----------10---10----------9----9--------------------- 
E----2------2--2--2--2--2--2----------8-----8----------7----7--------------------- 
          
 
 (x4)   
E--------------------------------------------------------------------------------- 
B--------------------------------------------------------------------------------- 
G----2---------------------------------------------------------------------------- 
D----2--------2------------4------------------------------------------------------ 
A----0--------2------------4-------4-4-4-4-4-4-4---------------------------------- 
E-------------0------------2-------2-2-2-2-2-2-2---------------------------------- 
 
(interludio) w/ Wah 
E--------------------------------------------------------------------------------- 
B--------------------------------------------------------------------------------- 
G--------------------------------------------------------------------------------- 
D--------------------------------------------------------------------------------- 
A7h9-9--7h9-9999---7h9-9-7h9-9999--10h12-12--10h12-12121212----------------------- 
E--------------------------------------------------------------------------------- 
 
E--------------------------------------------------------------------------------- 
B--------------------------------------------------------------------------------- 
G--------------------------------------------------------------------------------- 
D-------------------------------------------------------------------------------- 
A-12h14-14--12h14-14141414------------------------------------------------------- 
E-------------------------------------------------------------------------------- 
 
 
(SOLO) w/ Wah 
 
E--------------------------------------------------------------------------------- 
B--------------------------------------------------------------------------------- 
G12h14-14-14-14-?12h 14-14-14-14----12h14-14-14-14------------------------------- 
D-------------------------------------------------------------------------------- 
A-------------------------------------------------------------------------------- 
E-------------------------------------------------------------------------------- 
 
E--------------------------------------------------------------------------------- 
B--------------------------------------------------------------------------------- 
G12h14-14-14-14 ?12h 14-14-14-14----12h14-14-14-14----11~~~9---------------------- 
D-------------------------------------------------------------------------------- 
A-------------------------------------------------------------------------------- 
E-------------------------------------------------------------------------------- 
 
 
E--------------------------------------------------------------------------------- 
B----------------------------------14--------------------------------------------- 
G12h14-14-14-14 ?12h 14-14-14-14------------------------------------------------- 
D-------------------------------------------------------------------------------- 
A-------------------------------------------------------------------------------- 
E-------------------------------------------------------------------------------- 
 
E--------------------------------------------------------------------------------- 
B--------------------------------------------------------------------------------- 
G12h14-14-14-14 ?12h 14-14-14-14----12h14-14-14-14----11~~~9--------------------- 
D-------------------------------------------------------------------------------- 
A-------------------------------------------------------------------------------- 
E-------------------------------------------------------------------------------- 
 
 
_______________________________________________________ 
Contribuição: **Filipe**([email protected]) 

		  

See also:

tabs Billy Idol - White Wedding tabs Heart - Barracuda tabs The Beatles - Let It Be tabs The Shadows - Apache tabs The Cranberries - Ode to my Family tabs Dire Straits - Why Worry
e-chords

Other versions:

tabs 3 Doors Down - Sarah Yellin tabs Three Doors Down - Sarah Yellin
auto scroll beats size up size down change color hide chords drawings
tab show chords e-chords YouTube Clip e-chords hide all tabs e-chords go to top tab

share