Thousand Foot Krutch

Where The River Flows

Thousand Foot Krutch

tabs

by  HEBEALMEIDA

save to print version add songbook text version e-mail correct tuner
chordsukulelecavacokeyboardtabbassdrumsharmonicaflute Guitar Pro
close

there isn't a video lesson for this song

chords

Where The River Flows

	  		
Intro: 
E|----------------------------| 
B|----------------------------| 
G|----------------------------| 
D|-1--1-3-1-4--1-3-1-4-4------| 
A|-1--1-3-1-4--1-3-1-4-4-(x4)-| 
D|-1--1-3-1-4--1-3-1-4-4------| 

Verse: () play twice, play whole Verse Twice 
E|----------------------------------------------------------| 
B|----------------------------------------------------------| 
G|----------------------------------------------------------| 
D|-------------------------1-3-1-4--(1--1-3-1-4--1-3-1-4-4)-| 
A|-66666666666666666666666-1-3-1-4--(1--1-3-1-4--1-3-1-4-4)-| 
D|-66666666666666666666666-1-3-1-4--(1--1-3-1-4--1-3-1-4-4)-| 
pm ....................... 

Chorus: Play twice 
E|-----------------------------------------| 
B|-----------------------------------------| 
G|-----------------------------------------| 
D|---------------------------------1-3-1-4-| 
A|-6666666666666666555555555555555-1-3-1-4-| 
D|-6666666666666666555555555555555-1-3-1-4-| 
pm ............................... 

Intro: Two times, not four 
Verse 
Chorus 

Solo: These notes are all single notes except the end 
E|---------------------------------------------------------------------| 
B|---------------------------------------------------------------------| 
G|---------------------------------------------------------------------| 
D|-------------------------------------------------------------1-3-1-4-| 
A|-------------------------------------------------------------1-3-1-4-| 
D|-11111131114131-(x3)-66666686669686-(x2)-11111131114131-(x2)-1-3-1-4-| 

Intro: Twice, Not Four 
Verse 

Ending Chorus: 
E|------------------------------------------------------| 
B|------------------------------------------------------| 
G|------------------------------------------------------| 
D|----------------------------------1-3-1-4)-1--1-3-1-4-| 
A|-(6666666666666666555555555555555-1-3-1-4)-1--1-3-1-4-| 
D|-(6666666666666666555555555555555-1-3-1-4)-1--1-3-1-4-| 
pm  ...............................         

 
		  

See also:

tabs Placebo - Without you I'm Nothing tabs Kelly Clarkson - Since u been gone tabs Maroon 5 - She will be loved (intro) tabs Cyndi Lauper - Time After Time tabs Pink - Who knew tabs Black Eyed Peas - My humps
e-chords

Other versions:

tabs Collective Soul - Where The River Flows tabs Thousand Foot Krutch - Where The River Flows
auto scroll beats size up size down change color hide chords drawings
tab show chords e-chords YouTube Clip e-chords hide all tabs e-chords go to top tab

share