Thousand Foot Krutch

Watching Over Me

Thousand Foot Krutch

tabs

by  VSWORLD

save to print version add songbook text version e-mail correct tuner
chordsukulelecavacokeyboardtabbassdrumsharmonicaflute Guitar Pro
close

there isn't a video lesson for this song

chords

Watching Over Me

	  		

Watch this tab in action at https://www.youtube.com/watch?v=_91Maun4FQY&feature=youtu.be 

e|---------------------------------------------------------------------------| 
B|---------------------------------------------------------------------------| 
G|-----------5---------5-----------------------------------------------------| 
d|--------7----7----7----7-------(x8)----------------------------------------| 
A|-----7---------------------------------------------------------------------| 
D|---------------------------------------------------------------------------| 

e|---------------------------------------------------------------------------| 
B|---------------------------------------------------------------------------| 
G|---------------------------------------------------------------------------| 
d|-8----------7-----------8----------10--------------------------------------| 
A|-8---(x8)---7---(x8)----8---(x8)---10-(let ring)---------------------------| 
D|-8----------7-----------8----------10--------------------------------------| 

e|---------------------------------------------------------------------------| 
B|---------------------------------------------------------------------------| 
G|---------------------------------------------------------------------------| 
d|-0---(x8)----7----------9----------5----------7----------------------------| 
A|-0-----------7---(x8)---9---(x8)---5---(x4)---7---(x4)---------------------| 
D|-0-----------7----------9----------5----------7----------------------------| 

e|---------------------------------------------------------------------------| 
B|---------------------------------------------------------------------------| 
G|---------------------------------------------------------------------------| 
d|-0---(x8)----7----------9----------5----------7----------------------------| 
A|-0-----------7---(x8)---9---(x8)---5---(x4)---7---(x4)---------------------| 
D|-0-----------7----------9----------5----------7----------------------------| 

e|---------------------------------------------------------------------------| 
B|---------------------------------------------------------------------------| 
G|-9-9-9----7-7-7----9-9-9----7-7-7----9-9-9----7-7-7------------------------| 
d|---------------------------------------------------------------------------| 
A|---------------------------------------------------------------------------| 
D|---------------------------------------------------------------------------| 

e|---------------------------------------------------------------------------| 
B|---------------------------------------------------------------------------| 
G|---------------------------------------------------------------------------| 
d|-9-9-9----7-7-7------------------------------------------------------------| 
A|---------------------------------------------------------------------------| 
D|---------------------------------------------------------------------------| 

e|---------------------------------------------------------------------------| 
B|---------------------------------------------------------------------------| 
G|-9-9-9----7-7-7----9-9-9----7-7-----7--------------------------------------| 
d|---------------------------------------------------------------------------| 
A|---------------------------------------------------------------------------| 
D|---------------------------------------------------------------------------| 

e|---------------------------------------------------------------------------| 
B|---------------------------------------------------------------------------| 
G|-----------5---------5-----------------------------------------------------| 
d|--------7----7----7----7-------(x8)----------------------------------------| 
A|-----7---------------------------------------------------------------------| 
D|---------------------------------------------------------------------------| 

e|---------------------------------------------------------------------------| 
B|---------------------------------------------------------------------------| 
G|---------------------------------------------------------------------------| 
d|-8----------7-----------8----------10--------------------------------------| 
A|-8---(x8)---7---(x8)----8---(x8)---10-(let ring)---------------------------| 
D|-8----------7-----------8----------10--------------------------------------| 

e|---------------------------------------------------------------------------| 
B|---------------------------------------------------------------------------| 
G|---------------------------------------------------------------------------| 
d|-0---(x8)----7----------9----------5----------7----------------------------| 
A|-0-----------7---(x8)---9---(x8)---5---(x4)---7---(x4)---------------------| 
D|-0-----------7----------9----------5----------7----------------------------| 

e|---------------------------------------------------------------------------| 
B|---------------------------------------------------------------------------| 
G|---------------------------------------------------------------------------| 
d|-0---(x8)----7----------9----------5----------7----------------------------| 
A|-0-----------7---(x8)---9---(x8)---5---(x4)---7---(x4)---------------------| 
D|-0-----------7----------9----------5----------7----------------------------| 

e|---------------------------------------------------------------------------| 
B|---------------------------------------------------------------------------| 
G|-9-9-9----7-7-7----9-9-9----7-7-7----9-9-9----7-7-7------------------------| 
d|---------------------------------------------------------------------------| 
A|---------------------------------------------------------------------------| 
D|---------------------------------------------------------------------------| 

e|---------------------------------------------------------------------------| 
B|---------------------------------------------------------------------------| 
G|---------------------------------------------------------------------------| 
d|-9-9-9----7-7-7------------------------------------------------------------| 
A|---------------------------------------------------------------------------| 
D|---------------------------------------------------------------------------| 

e|---------------------------------------------------------------------------| 
B|---------------------------------------------------------------------------| 
G|-9-9-9----7-7-7----9-9-9----7-7-----7--------------------------------------| 
d|---------------------------------------------------------------------------| 
A|---------------------------------------------------------------------------| 
D|---------------------------------------------------------------------------| 

e|---------------------------------------------------------------------------| 
B|---------------------------------------------------------------------------| 
G|------7------------------7-------------------------------------------------| 
d|---7----7-5-5-------7----7-5-5---7---(x2)----------------------------------| 
A|-5----------------5--------------------------------------------------------| 
D|---------------------------------------------------------------------------| 

e|---------------------------------------------------------------------------| 
B|---------------------------------------------------------------------------| 
G|---------------------------------------------------------------------------| 
d|-0---(x8)----7----------9----------5----------7----------------------------| 
A|-0-----------7---(x8)---9---(x8)---5---(x4)---7---(x4)---------------------| 
D|-0-----------7----------9----------5----------7----------------------------| 

e|---------------------------------------------------------------------------| 
B|---------------------------------------------------------------------------| 
G|---------------------------------------------------------------------------| 
d|-0---(x6)---------------9----------5----------7----------------------------| 
A|-0----------------------9---(x8)---5---(x4)---7---(x4)---------------------| 
D|-0----------------------9----------5----------7----------------------------| 

e|---------------------------------------------------------------------------| 
B|---------------------------------------------------------------------------| 
G|-9-9-9----7-7-7----9-9-9----7-7-7----9-9-9----7-7-7------------------------| 
d|---------------------------------------------------------------------------| 
A|---------------------------------------------------------------------------| 
D|---------------------------------------------------------------------------| 

e|---------------------------------------------------------------------------| 
B|---------------------------------------------------------------------------| 
G|---------------------------------------------------------------------------| 
d|-9-9-9----7-7-7------------------------------------------------------------| 
A|---------------------------------------------------------------------------| 
D|---------------------------------------------------------------------------| 

e|---------------------------------------------------------------------------| 
B|---------------------------------------------------------------------------| 
G|-9-9-9----7-7-7----9-9-9----7-7-----7--------------------------------------| 
d|---------------------------------------------------------------------------| 
A|---------------------------------------------------------------------------| 
D|---------------------------------------------------------------------------| 

e|---------------------------------------------------------------------------| 
B|---------------------------------------------------------------------------| 
G|------7------------------7-------------------------------------------------| 
d|---7----7-5-5--------7----7-5-5---7---(x4)---------------------------------| 
A|-5-----------------5-------------------------------------------------------| 
D|---------------------------------------------------------------------------| 


*Note: At the end of the second run-through of the Chorus and before the solo-type guitar picking,  
you will either need to shorten the Chorus by one strum, purposely not hit the first two notes after 
 the second run-through of the Chorus, or play both at the same time like this?  
*e|--------------------------------------------------------------------------| 
*B|--------------------------------------------------------------------------| 
*G|-9-9----------------------------------------------------------------------| 
*d|-7-7----------------------------------------------------------------------| 
*A|-7-7----------------------------------------------------------------------| 
*D|-7-7----------------------------------------------------------------------| 
		  

See also:

tabs Placebo - Without you I'm Nothing tabs Kelly Clarkson - Since u been gone tabs Maroon 5 - She will be loved (intro) tabs Cyndi Lauper - Time After Time tabs Pink - Who knew tabs Black Eyed Peas - My humps
e-chords

Other versions:

tabs Iced Earth - Watching Over Me tabs Thousand Foot Krutch - Watching Over Me
auto scroll beats size up size down change color hide chords drawings
tab show chords e-chords YouTube Clip e-chords hide all tabs e-chords go to top tab

share