Thousand Foot Krutch

The End Is Where We Begin

Thousand Foot Krutch

tabs Intermediate intermediate

by  HUGO_RODRIGUES

save to print version add songbook text version e-mail correct tuner
chordsukulelecavacokeyboardtabbassdrumsharmonicaflute Guitar Pro
close

there isn't a video lesson for this song

chords

The End Is Where We Begin

	  		
Intro| 

E|-----------------------------------------| 
B|-----------------------------------------| 
G|--11-12-11-11-12-11-11-12-11-14-11-12-11-| 
D|-9--------9--------9---------------------| 
A|-----------------------------------------| 
D|-----------------------------------------| 

E|-----------------------------------------------------------------| 
B|-----------------------------------------------------------------| 
G|-----------------------------------------------------------------|      (X2) 
D|-9-9--9-9-9--4-5-5--5-5-5--2-9-9--9-9-9--4-5-5--5-5-2-7-4-9------| 
A|-9-9--9-9-9--4-5-5--5-5-5--2-9-9--9-9-9--4-5-5--5-5-2-7-4-9------| 
D|-9-9--9-9-9--4-5-5--5-5-5--2-9-9--9-9-9--4-5-5--5-5-2-7-4-9------| 

Verse 1 is just the second intro only playing the top D string. Start have way through 
the first verse though. 

(#) = palm mute 
{#} = number of times you play it 
Chorus|                                                      {6} {12} {8} 
E|----------------------------------------------------------------------| 
B|----------------------------------------------------------------------| 
G|----------------------------------------------------------------------| 
D|-0-0-9-9-9-7-5-5-5-5-7-7-7-7-0-0-0-9-9-9-7-5-5-5-5-7-7-7-7-(4)-(5)-(7)| 
A|-0-0-9-9-9-7-5-5-5-5-7-7-7-7-0-0-0-9-9-9-7-5-5-5-5-7-7-7-7-(4)-(5)-(7)| 
D|-0-0-9-9-9-7-5-5-5-5-7-7-7-7-0-0-0-9-9-9-7-5-5-5-5-7-7-7-7-(4)-(5)-(7)| 

Repeat second intro 

2nd verse is the same as the first verse. 

Bridge| 

E|-------------------------------------------------------------------| 
B|-------------------------------------------------------------------| 
G|-------------------------------------------------------------------| 
D|9-9-9-12-12-12-8-8-8-7-7-7-10-10-10-9-9-9-12-12-12-8-8-8-7-7-7-4/9-| 
A|9-9-9-12-12-12-8-8-8-7-7-7-10-10-10-9-9-9-12-12-12-8-8-8-7-7-7-4/9-| 
D|9-9-9-12-12-12-8-8-8-7-7-7-10-10-10-9-9-9-12-12-12-8-8-8-7-7-7-4/9-| 

 
		  

Full key step upFull key step up
Half key step upHalf key step up
Half key step downHalf key step down
Full key step downFull key step down
hide glossary

See also:

tabs Placebo - Without you I'm Nothing tabs Kelly Clarkson - Since u been gone tabs Maroon 5 - She will be loved (intro) tabs Cyndi Lauper - Time After Time tabs Pink - Who knew tabs Black Eyed Peas - My humps
e-chords

Other versions:

tabs Thousand Foot Krutch - The End Is Where We Begin
auto scroll beats size up size down change color hide chords drawings
tab show chords e-chords YouTube Clip e-chords hide all tabs e-chords go to top tab

share