Thousand Foot Krutch

Small To Say

Thousand Foot Krutch

tabs

by  TAMAMOREIRA

save to print version add songbook text version e-mail correct tuner
chordsukulelecavacokeyboardtabbassdrumsharmonicaflute Guitar Pro
close

there isn't a video lesson for this song

chords

Small To Say

	  		 

Intro 
e|--------------------------------------------------------------------| 
B|------------------------------------------------------------------15| 
d|------------------------------------------------------------------x-| 
D|-7------0---7---0---7---0------0---/9---9------9------9---9---9---9-| 
A|-5------0---5---0---5---0------0---/9---9------9------9---9---9---9-| 
D|-0------0---0---0---0---0------0---/9---9------9------9---9---9---9-| 

e|--------------------------------------------------------------------| 
B|-15--15---15---15-----14--------------------------------------------| 
G|-x---x----x----x------x---------------------------------------------| 
d|-9---9----9----9------9---------4------x---4------x---4-------------| 
A|-9---9----9----9------9---------4------x---4------x---4-------------| 
D|-9---9----9----9------9---------4------x---4------x---4-------------| 

e|--------------------------------------------------------------------| 
B|--------------------------------------------------------------------| 
G|--------------------------------------------------------------------| 
d|-4---4---4------4---4---4---5------5---5------5---5---5---5---5/8--8| 
A|-4---4---4------4---4---4---7------7---7------5---5---5---5---5/8--8| 
D|-4---4---4------4---4---4---5------5---5------5---5---5---5---5/8--8| 

e|--------------------------------------------------------------------| 
B|--------------------------------------------------------------------| 
G|--------------------------------------------------------------------| 
d|-8---8\7---7--------------------------------------------------------| 
A|-8---8\7---7--------------------------------------------------------| 
D|-8---8\7---7--------------------------------------------------------| 

verse 1(There is another guitar which plays during the second part of the Chorus playing 
the turnaround riff  
located farther down, so you can play that instead)  
e|--------------------------------------------------------------------| 
B|--------------------------------------------------------------------| 
d|--------------------------------------------------------------------| 
D|-7------7------0------0---7------0---0---0---7---0---7--------------| 
A|-5------5------0------0---5------0---0---0---5---0---5--------------| 
D|-0------0------0------0---0------0---0---0---0---0---0--------------| 

e|--------------------------------------| 
B|------------------------------------15| 
d|------------------------------------x-| 
D|-0---/9---9------9------9---9---9---9-| 
A|-0---/9---9------9------9---9---9---9-| 
D|-0---/9---9------9------9---9---9---9-| 

e|--------------------------------------------------------------------| 
B|-15--15---15---15-----14--------------------------------------------| 
G|-x---x----x----x------x---------------------------------------------| 
d|-9---9----9----9------9---------4------x---4------x---4-------------| 
A|-9---9----9----9------9---------4------x---4------x---4-------------| 
D|-9---9----9----9------9---------4------x---4------x---4-------------| 

e|--------------------------------------------------------------------| 
B|--------------------------------------------------------------------| 
G|--------------------------------------------------------------------| 
d|-4---4---4------4---4---4---5-------5---5---5---5---5---5---5/8---8-| 
A|-4---4---4------4---4---4---7-------7---7---5---5---5---5---5/8---8-| 
D|-4---4---4------4---4---4---5-------5---5---5---5---5---5---5/8---8-| 

e|--------------------------------------------------------------------| 
B|--------------------------------------------------------------------| 
G|--------------------------------------------------------------------| 
d|-8---8\7---7--------------------------------------------------------| 
A|-8---8\7---7--------------------------------------------------------| 
D|-8---8\7---7--------------------------------------------------------| 

e|--------------------------------------------------------------------| 
B|--------------------------------------------------------------------| 
d|--------------------------------------------------------------------| 
D|-7------7------0------0---7------0---0---0---7---0---7--------------| 
A|-5------5------0------0---5------0---0---0---5---0---5--------------| 
D|-0------0------0------0---0------0---0---0---0---0---0--------------| 

e|--------------------------------------| 
B|------------------------------------15| 
d|------------------------------------x-| 
D|-0---/9---9------9------9---9---9---9-| 
A|-0---/9---9------9------9---9---9---9-| 
D|-0---/9---9------9------9---9---9---9-| 

e|--------------------------------------------------------------------| 
B|-15--15---15---15-----14--------------------------------------------| 
G|-x---x----x----x------x---------------------------------------------| 
d|-9---9----9----9------9---------4------x---4------x---4-------------| 
A|-9---9----9----9------9---------4------x---4------x---4-------------| 
D|-9---9----9----9------9---------4------x---4------x---4-------------| 

e|--------------------------------------------------------------------| 
B|--------------------------------------------------------------------| 
G|--------------------------------------------------------------------| 
d|-4---4---4-----4---4---4---5------5---5-----5---5---5----5---5---x--| 
A|-4---4---4-----4---4---4---7------7---7-----5---5---5----5---5---x--| 
D|-4---4---4-----4---4---4---5------5---5-----5---5---5----5---5---x--| 

Chorus I(x2) 
(The d|9-9-9-9-9-9-9-11-11-11-11-11-12-12-12-12| is simple to play if you follow the 
     A|9-9-9-9-9-9-9-9--9--9--9--9--9--9--9--9-| vocalist's voice when he sings "and I                
     D|9-9-9-9-9-9-9-9--9--9--9--9--9--9--9--9-| need you.") 
(Second time through Chorus I, don't hit the last three "4" chords) 

e|----------------------------------------------------------------------------------| 
B|----------------------------------------------------------------------------------| 
G|----------------------------------------------------------------------------------| 
d|-9-------7-7-7-7-9-7-7-9--7-7-9--7-7-9--7/9-9-9-9-9-9-9-11-11-11-11-11-12-12-12-12| 
A|-9-(x16)-7-7-7-7-7-7-7-7--7-7-7--7-7-7--7/9-9-9-9-9-9-9-9--9--9--9--9--9--9--9--9-| 
D|-9-------7-7-7-7-7-7-7-7--7-7-7--7-7-7--7/9-9-9-9-9-9-9-9--9--9--9--9--9--9--9--9-| 

e|--------------------------------------------------------------------| 
B|--------------------------------------------------------------------| 
G|--------------------------------------------------------------------| 
d|-5------5------5---5---0------4---0------4---0------4--4--4---------| 
A|-5------5------5---5---0------4---0------4---0------4--4--4---------| 
D|-5------5------5---5---0------4---0------4---0------4--4--4---------| 

Turnaround riff 
e|--------------------------------------------------------------------| 
B|--------------------------------------------------------------------| 
G|-7---9--9--7--7--------------4---6---6-6-6---6-7-6------------------| 
d|-7---------------7-x-x-x-x---4--------------------------------------| 
A|-5-----------------x-x-x-x---2--------------------------------------| 
D|-------------------x-x-x-x------------------------------------------| 

e|--------------------------------------------------------------------| 
B|--------------------------------------------------------------------| 
G|--------------------------------------------------------------------| 
d|---4------x---4------x---4------------------------------------------| 
A|---4------x---4------x---4------------------------------------------| 
D|---4------x---4------x---4------------------------------------------| 
                           x <-(The other guitar hits d|-11-| here) 
                                                      A|-11-| 
                                                      D|-11-| 
e|--------------------------------------------------------------------| 
B|--------------------------------------------------------------------| 
G|--------------------------------------------------------------------| 
d|-4---4---4------4---4---4---5-------5---5---5---5---5---5---5/8---8-| 
A|-4---4---4------4---4---4---7-------7---7---5---5---5---5---5/8---8-| 
D|-4---4---4------4---4---4---5-------5---5---5---5---5---5---5/8---8-| 

e|--------------------------------------------------------------------| 
B|--------------------------------------------------------------------| 
G|--------------------------------------------------------------------| 
d|-8---8\7---7--------------------------------------------------------| 
A|-8---8\7---7--------------------------------------------------------| 
D|-8---8\7---7--------------------------------------------------------| 

Verse II(Same as Verse I, just strum an extra muted chord before Chorus II) 

Chorus II (x2) 
e|----------------------------------------------------------------------------------| 
B|----------------------------------------------------------------------------------| 
G|----------------------------------------------------------------------------------| 
d|-9-------7-7-7-7-9-7-7-9--7-7-9--7-7-9--7/9-9-9-9-9-9-9-11-11-11-11-11-12-12-12-12| 
A|-9-(x16)-7-7-7-7-7-7-7-7--7-7-7--7-7-7--7/9-9-9-9-9-9-9-9--9--9--9--9--9--9--9--9-| 
D|-9-------7-7-7-7-7-7-7-7--7-7-7--7-7-7--7/9-9-9-9-9-9-9-9--9--9--9--9--9--9--9--9-| 

e|--------------------------------------------------------------------| 
B|--------------------------------------------------------------------| 
G|--------------------------------------------------------------------| 
d|-5-----5---5------5---5---0------4---0------4---0------4--4--4------| 
A|-5-----5---5------5---5---0------4---0------4---0------4--4--4------| 
D|-5-----5---5------5---5---0------4---0------4---0------4--4--4------| 

Bridge(Here I combined the two guitars into one guitar part) 
e|--------------------------------------------------------------------| 
B|--------------------------------------------------------------------| 
G|-7-------9----------------------------------------------------------| 
d|-7-(x12)-7-(x16)----------------------------------------------------| 
A|-5-------5----------------------------------------------------------| 
D|--------------------------------------------------------------------| 

e|--------------------------------------------------------------------| 
B|--------------------------------------------------------------------| 
G|--------------------------------------------------------------------| 
d|-0---0---0--8----0--8----0--8----8---0----0---0--8----0--8---x--0--8| 
A|-0---0---0--8----0--8----0--8----8---0----0---0--8----0--8---x--0--8| 
D|-0---0---0--8----0--8----0--8----8---0----0---0--8----0--8---x--0--8| 

e|--------------------------------------------------------------------| 
B|--------------------------------------------------------------------| 
G|------------7-------9-----------------------------------------------| 
d|-0----0--0--7-(x12)-7-(x16)-----------------------------------------| 
A|-0----0--0--5-------5-----------------------------------------------| 
D|-0----0--0----------------------------------------------------------| 

e|--------------------------------------------------------------------| 
B|--------------------------------------------------------------------| 
G|--------------------------------------------------------------------| 
d|-0---0---0--8----0--8----0--8------0----0---0--8----0--8---x--0--8--| 
A|-0---0---0--8----0--8----0--8------0----0---0--8----0--8---x--0--8--| 
D|-0---0---0--8----0--8----0--8------0----0---0--8----0--8---x--0--8--| 

e|--------------------------------------------------------------------| 
B|--------------------------------------------------------------------| 
G|--------------------------------------------------------------------| 
d|-0--0--0-0-0-7--7-7--7--7-7-7-7\5-5--5--5-5-0--0-0--0-0-0-5---------| 
A|-0--0--0-0-0-7--7-7--7--7-7-7-7\5-5--5--5-5-0--0-0--0-0-0-5---------| 
D|-0--0--0-0-0-7--7-7--7--7-7-7-7\5-5--5--5-5-0--0-0--0-0-0-5---------| 

e|--------------------------------------------------------------------| 
B|--------------------------------------------------------------------| 
G|--------------------------------------------------------------------| 
d|-0--0---0-0-7--7-7--7--7-7-7-7\5-5--5--5-5-0--0-0--0-0-0-5----------| 
A|-0--0---0-0-7--7-7--7--7-7-7-7\5-5--5--5-5-0--0-0--0-0-0-5----------| 
D|-0--0---0-0-7--7-7--7--7-7-7-7\5-5--5--5-5-0--0-0--0-0-0-5----------| 

e|--------------------------------------------------------------------| 
B|--------------------------------------------------------------------| 
G|--------------------------------------------------------------------| 
d|-------------------------------------------5------------------------| 
A|----------------------------------5--------5------------------------| 
D|-0-(x16)--9-(x16)--4-(x16)-5-(x8)-5--(x4)--5------------------------| 
(Everything from the "0" note to the "5" chord is palm-muted)(The "5" note simply builds up 
into the "5" chord) 

e|--------------------------------------------------------------------| 
B|--------------------------------------------------------------------| 
G|---------------9---9---7---7----------------------------------------| 
d|-0-0-0-0-0-0-0-0-0-0-0-0-0-0-0-7------------------------------------| 
A|-0-0-0-0-0-0-0-0-0-0-0-0-0-0-0-0------------------------------------| 
D|-0-0-0-0-0-0-0-0-0-0-0-0-0-0-0-0------------------------------------| 

e|--------------------------------------------------------------------| 
B|--------------------------------------------------------------------| 
G|--------------------------------------------------------------------| 
d|-9-9-9-9-9-9-9-11----11----11----11-12-11---------------------------| 
A|-9-9-9-9-9-9-9-9--9--9--9--9--9--9--9--9----------------------------| 
D|-9-9-9-9-9-9-9-9--9--9--9--9--9--9--9--9----------------------------| 

e|--------------------------------------------------------------------| 
B|--------------------------------------------------------------------| 
G|--------------------------------------------------------------------| 
d|-4-------5----------------------------------------------------------| 
A|-4-(x16)-5-(x8)-----------------------------------------------------| 
D|-4-------5----------------------------------------------------------| 

e|--------------------------------------------------------------------| 
B|--------------------------------------------------------------------| 
G|--------------------------------------------------------------------| 
d|-0--------9--------4------------------------------------------------| 
A|-0-(x16)--9-(x16)--4-(x16)------------------------------------------| 
D|-0--------9--------4------------------------------------------------| 

e|--------------------------------------------------------------------| 
B|--------------------------------------------------------------------| 
G|--------------------------------------------------------------------| 
d|-5-------5---5---5---5---5---5---5/8---8---8---8\7---7--------------| 
A|-7-------7---7---5---5---5---5---5/8---8---8---8\7---7--------------| 
D|-5-------5---5---5---5---5---5---5/8---8---8---8\7---7--------------| 

e|--------------------------------------------------------------------| 
B|--------------------------------------------------------------------| 
G|--------------------------------------------------------------------| 
d|-0------------------------------------------------------------------| 
A|-0-(x8)-------------------------------------------------------------| 
D|-0------------------------------------------------------------------| 
(After this, go straight into Chorus III without any breaks) 

Chorus III(Same as Chorus II, but the first time through only hit the "9" chord  
eight times instead of sixteen times 

Outroduction 
e|--------------------------------------------------------------------| 
B|--------------------------------------------------------------------| 
G|----------------------------------------7---------------------------| 
d|-0------4---0------4--4--4---0------4---7-(let ring)----------------| 
A|-0------4---0------4--4--4---0------4---5---------------------------| 
D|-0------4---0------4--4--4---0------4-------------------------------| 


************************************ 

| /   slide up 
| \   slide down 
| x   Mute note 

************************************ 
		  

See also:

tabs Placebo - Without you I'm Nothing tabs Kelly Clarkson - Since u been gone tabs Maroon 5 - She will be loved (intro) tabs Cyndi Lauper - Time After Time tabs Pink - Who knew tabs Black Eyed Peas - My humps
e-chords

Other versions:

tabs Thousand Foot Krutch - Small To Say
auto scroll beats size up size down change color hide chords drawings
tab show chords e-chords YouTube Clip e-chords hide all tabs e-chords go to top tab

share