Thousand Foot Krutch

Rawkfist

Thousand Foot Krutch

tabs Beginner beginner

by  JOFANAN

save to print version add songbook text version e-mail correct tuner
chordsukulelecavacokeyboardtabbassdrumsharmonicaflute Guitar Pro
close

there isn't a video lesson for this song

chords

Rawkfist

Year: 2003 - Album: Phenomenon

	  		Transcribed By: Jonathan Foreman [email protected] 
Tuning: Standard Drop-D DADGBe 
 
Intro: 
 
 e|-------| 
 B|-------| 
 G|-------| 
 D|--2-2--| 
 A|--2-2--| 
 D|--2-2--| 
 
 
verse: 
  
e|-----xxx-----xxxxxxx-----xxx-----xxxxxxx-----xxx-----xxxxxxx-| 
B|-----xxx-----xxxxxxx-----xxx-----xxxxxxx-----xxx-----xxxxxxx-| 
G|-----xxx-----xxxxxxx-----xxx-----xxxxxxx-----xxx-----xxxxxxx-| 
D|-----xxx-----xxxxxxx-----xxx-----xxxxxxx-----xxx-----xxxxxxx-| 
A|-5h7-xxx-5h7-xxxxxxx-5h7-xxx-5h7-xxxxxxx-5h7-xxx-5h7-xxxxxxx-| 
D|-----xxx-----xxxxxxx-----xxx-----xxxxxxx-----xxx-----xxxxxxx-| 
                                                                          
e|-----xxxxx---------------------------------------------| 
B|-----xxxxx---------------------------------------------| 
G|-----xxxxx---------------------------------------------| 
D|-----xxxxx--5-4-0--------------------------------------| 
A|-5h7-xxxxx--5-4-0--------------------------------------| 
D|-----xxxxx--5-4-0--------------------------------------| 
 
Chorus:  
         
  Repeat 3 times          light it up now....... 
e|----------------------|---------------------------| 
B|----------------------|---------------------------|  
G|----------------------|---------------------------| 
D|--2-2-0-------7-7-7---|---------------------------| 
A|--2-2-0-------7-7-7---|-2-0-2---5-0-7-------------| 
D|--2-2-0-0-0-0-7-7-7---|-2-0-2---5-0-7-------------| 
 
 
Bridge:  
e|-----------------------------------xxx-----xxxxxx-----xxxx-| 
B|-----------------------------------xxx-----xxxxxx-----xxxx-| 
G|-----------------------------------xxx-----xxxxxx-----xxxx-| 
D|2--2-0-2---2-2-----------2--2-0-2--xxx-----xxxxxx-----xxxx-| 
A|2--2-0-2---2-2-----------2--2-0-2--xxx-2~~-xxxxxx-1~~-xxxx-| 
D|2--2-0-2~--2-2-----------2--2-0-2--xxx-----xxxxxx-----xxxx-| 
                  
e|-------------------------- xxx----xxxxxx----xxxx-----| 
B|---------------------------xxx----xxxxxx----xxxx-----| 
G|---------------------------xxx----xxxxxx----xxxx-----| 
D|--2--2-0-2--2-2--2--2-0-2--xxx----xxxxxx----xxxx-----| 
A|--2--2-0-2--2-2--2--2-0-2--xxx-2--xxxxxx--1-xxxx-----| 
D|--2--2-0-2--2-2--2--2-0-2--xxx----xxxxxx----xxxx-----| 
 
e|------------------------------ 
B|------------------------------ 
G|------------------------------ 
D|--2-2-----2-2-----2-2----2-2-- 
A|--2-2-----2-2-----2-2----2-2-- 
D|--2-2-----2-2-----2-2----2-2-- 
 
  Listen to cd for rhythm... 
e|-------------------------------------------------- 
B|-------------------------------------------------- 
G|-------------------------------------------------- 
D|-7-0-7-0--7-0-7----------------------------------- 
A|-7-0-7-0--7-0-7----------------------------------- 
D|-7-0-7-0--7-0-7----------------------------------- 
 
 

		  

See also:

tabs Placebo - Without you I'm Nothing tabs Kelly Clarkson - Since u been gone tabs Maroon 5 - She will be loved (intro) tabs Cyndi Lauper - Time After Time tabs Pink - Who knew tabs Black Eyed Peas - My humps
e-chords

Other versions:

tabs Thousand Foot Krutch - Rawkfist
auto scroll beats size up size down change color hide chords drawings
tab show chords e-chords YouTube Clip e-chords hide all tabs e-chords go to top tab

share