Thousand Foot Krutch

I See Red

Thousand Foot Krutch

tabs

by  GUSTSILVA

save to print version add songbook text version e-mail correct tuner
chordsukulelecavacokeyboardtabbassdrumsharmonicaflute Guitar Pro
close

there isn't a video lesson for this song

chords

I See Red

	  		

Intro(0:00-0:09)(All notes are palm-muted) 
C#|--------------------------------------------------------------------------| 
G#|--------------------------------------------------------------------------| 
E|---------------------------------------------------------------------------| 
b|----------7-------------7-------------5-------------3----------------------| 
F#|-5--5--5-----5-5--5--5-----5\3--3--3-----3\1--1--1------------------------| 
B|---------------------------------------------------------------------------| 

C#|--------------------------------------------------------------------------| 
G#|--------------------------------------------------------------------------| 
E|---------------------------------------------------------------------------| 
b|------------7-------------7-------------5-------------3--------------------| 
F#|-1/5--5--5-----5-5--5--5-----5\3--3--3-----3\1--1--1----------------------| 
B|---------------------------------------------------------------------------| 

Verse I(0:09-0:30)(All notes are palm-muted)(x4) 
C#|--------------------------------------------------------------------------| 
G#|--------------------------------------------------------------------------| 
E|---------------------------------------------------------------------------| 
b|------------7-------------7-------------5-------------3--------------------| 
F#|-1/5--5--5-----5-5--5--5-----5\3--3--3-----3\1--1--1----------------------| 
B|---------------------------------------------------------------------------| 

Pre-Chorus I(0:30-040)(Same as Verse I, but play through only twice) 

Chorus I(0:40-0:50)(Do not palm-mute notes) 
C#|--------------------------------------------------------------------------| 
G#|--------------------------------------------------------------------------| 
E|---------------------------------------------------------------------------| 
b|----------7-------------7-------------5-------------3----------------------| 
F#|-5--5--5-----5-5--5--5-----5\3--3--3-----3\1--1--1------------------------| 
B|---------------------------------------------------------------------------| 

C#|--------------------------------------------------------------------------| 
G#|--------------------------------------------------------------------------| 
E|---------------------------------------------------------------------------| 
b|------------7-------------7-------------5-------------3--------------------| 
F#|-1/5--5--5-----5-5--5--5-----5\3--3--3-----3\1--1--1----------------------| 
B|---------------------------------------------------------------------------| 

Verse II(0:50-1:10)(Same as Verse I) 

Pre-Chorus II(1:10-1:20)(Same as Pre-Chorus I) 

Chorus II(1:20-1:40) 
C#|--------------------------------------------------------------------------| 
G#|--------------------------------------------------------------------------| 
E|---------------------------------------------------------------------------| 
b|----------7-------------7-------------5-------------3----------------------| 
F#|-5--5--5-----5-5--5--5-----5\3--3--3-----3\1--1--1------------------------| 
B|---------------------------------------------------------------------------| 

C#|--------------------------------------------------------------------------| 
G#|--------------------------------------------------------------------------| 
E|---------------------------------------------------------------------------| 
b|------------7-------------7-------------5-------------3--------------------| 
F#|-1/5--5--5-----5-5--5--5-----5\3--3--3-----3\1--1--1----------------------| 
B|---------------------------------------------------------------------------| 

C#|--------------------------------------------------------------------------| 
G#|--------------------------------------------------------------------------| 
E|---------------------------------------------------------------------------| 
b|------------7-------------7-------------5-------------3--------------------| 
F#|-1/5--5--5-----5-5--5--5-----5\3--3--3-----3\1--1--1----------------------| 
B|---------------------------------------------------------------------------| 

C#|--------------------------------------------------------------------------| 
G#|--------------------------------------------------------------------------| 
E|---------------------------------------------------------------------------| 
b|------------7-------------7-------------5-------------3--------------------| 
F#|-1/5--5--5-----5-5--5--5-----5\3--3--3-----3\1--1--1----------------------| 
B|---------------------------------------------------------------------------| 

Chorus III(1:40-2:21)(x4) 
C#|--------------------------------------------------------------------------| 
G#|--------------------------------------------------------------------------| 
E|-10--10----5--5----7--7----------------------------------------------------| 
b|-10--10----5--5----7--7----8--8--------------------------------------------| 
F#|-8---8----3--3----5--5----8--8--------------------------------------------| 
B|---------------------------8--8--------------------------------------------| 

C#|--------------------------------------------------------------------------| 
G#|--------------------------------------------------------------------------| 
E|-10--10-----10-10-10/12--12--12--12-\7--7-----7-7-7\5--5--5--5-------------| 
b|-10--10-----10-10-10/12--12--12--12-\7--7-----7-7-7\5--5--5--5-------------| 
F#|-8---8------8--8--8/10--10--10--10-\5--5-----5-5-5\3--3--3--3-------------| 
B|---------------------------------------------------------------------------| 


Bridge(2:21-3:01) 
C#|--------------------------------------------------------------------------| 
G#|--------------------------------------------------------------------------| 
E|--3--3----5--5----7--7----7--7---------------------------------------------| 
b|--3--3----5--5----7--7----7--7---------------------------------------------| 
F#|-1--1----3--3----5--5----5--5---------------------------------------------| 
B|---------------------------------------------------------------------------| 
(Palm-mute all the chords above) 

C#|--------------------------------------------------------------------------| 
G#|--------------------------------------------------------------------------| 
E|--3--3----5--5----7--7----7--7---7--7\3--3----5--5----7--7----7--7---------| 
b|--3--3----5--5----7--7----7--7---7--7\3--3----5--5----7--7----7--7---------| 
F#|-1--1----3--3----5--5----5--5---5--5\1--1----3--3----5--5----5--5---------| 
B|---------------------------------------------------------------------------| 
(Palm-mute all the chords above) 

C#|--------------------------------------------------------------------------| 
G#|--------------------------------------------------------------------------| 
E|--3--3----5--5----7--7--7--7--7--7--7--7--7\3--3----5--5----7--7----7--7---| 
b|--3--3----5--5----7--7--7--7--7--7--7--7--7\3--3----5--5----7--7----7--7---| 
F#|-1--1----3--3----5--5--5--5--5--5--5--5--5\1--1----3--3----5--5----5--5---| 
B|---------------------------------------------------------------------------| 
(Palm-mute all the chords above; however, palm-mute the last two "5-7-7" chords and all other chords  
after the slide but play with more force) 

C#|--------------------------------------------------------------------------| 
G#|--------------------------------------------------------------------------| 
E|--3--3----5--5----7--7----7--7---7--7\3--3----5--5----7--7-----------------| 
b|--3--3----5--5----7--7----7--7---7--7\3--3----5--5----7--7-----------------| 
F#|-1--1----3--3----5--5----5--5---5--5\1--1----3--3----5--5-----------------| 
B|---------------------------------------------------------------------------| 
(Palm-mute all the chords above but play with more force) 

C#|--------------------------------------------------------------------------| 
G#|--------------------------------------------------------------------------| 
E|--7--7---7\3--3--3--3-/5--5--5--5-/7--7--7--7--7--7--7--7------------------| 
b|--7--7---7\3--3--3--3-/5--5--5--5-/7--7--7--7--7--7--7--7------------------| 
F#|-5--5---5\1--1--1--1-/3--3--3--3-/5--5--5--5--5--5--5--5------------------| 
B|---------------------------------------------------------------------------| 
(Palm-mute all the chords above but play with more force) 

Chorus IV(3:01-3:42)(Same as Chorus III) 

Outroduction(3:42-4:10) 
C#|--------------------------------------------------------------------------| 
G#|--------------------------------------------------------------------------| 
E|-10--10----5--5----7--7----------------------------------------------------| 
b|-10--10----5--5----7--7----8--8--------------------------------------------| 
F#|-8---8----3--3----5--5----8--8--------------------------------------------| 
B|---------------------------8--8--------------------------------------------| 

C#|--------------------------------------------------------------------------| 
G#|--------------------------------------------------------------------------| 
E|-10--10-----10-10-10/12--12--12--12-\7--7-----7-7-7\5--5--5--5-------------| 
b|-10--10-----10-10-10/12--12--12--12-\7--7-----7-7-7\5--5--5--5-------------| 
F#|-8---8------8--8--8/10--10--10--10-\5--5-----5-5-5\3--3--3--3-------------| 
B|---------------------------------------------------------------------------| 

C#|--------------------------------------------------------------------------| 
G#|--------------------------------------------------------------------------| 
E|---------------------------------------------------------------------------| 
b|---3--3--3----1--1--1----0--0--0-------------------------------------------| 
F#|--3--3--3----1--1--1----0--0--0-(Let ring)--------------------------------| 
B|---3--3--3----1--1--1----0--0--0-------------------------------------------| 

************************************ 

| /   slide up 
| \   slide down 
| x   Mute note 

************************************ 
		  

See also:

tabs Placebo - Without you I'm Nothing tabs Kelly Clarkson - Since u been gone tabs Maroon 5 - She will be loved (intro) tabs Cyndi Lauper - Time After Time tabs Pink - Who knew tabs Black Eyed Peas - My humps
e-chords

Other versions:

tabs Thousand Foot Krutch - I See Red
auto scroll beats size up size down change color hide chords drawings
tab show chords e-chords YouTube Clip e-chords hide all tabs e-chords go to top tab

share