Thousand Foot Krutch

Can't Stop This

Thousand Foot Krutch

tabs

by  LUCICAMARGO

save to print version add songbook text version e-mail correct tuner
chordsukulelecavacokeyboardtabbassdrumsharmonicaflute Guitar Pro
close

there isn't a video lesson for this song

chords

Can't Stop This

	  		
Intro 


       PM-----------------------------|    PM-------------------------| 
Db|---------------------------------------------------------------------------| 
Ab|---------------------------------------------------------------------------| 
Fb|---------------------------------------------------------------------------| 
Cb|---------------------------------------------------------------------------| x 3 
Gb|----------------------------------------------------------------------12\--| 
Cb|--7h9--9-9-9-9--7h9--9-9-9-9-9-9-9-9--7h9--9-9-9-9--7h9--9-9-9-9-9-9--12\--| 

       PM-----------------------------|    PM---------------------| 
Db|---------------------------------------------------------------------------| 
Ab|---------------------------------------------------------------------------| 
Fb|---------------------------------------------------------------------------| 
Cb|---------------------------------------------------------------------------| 
Gb|---------------------------------------------------------------------------| 
Cb|--7h9--9-9-9-9--7h9--9-9-9-9-9-9-9-9--7h9--9-9-9-9--7h9--9-9-9-9-----------| 


Db|-------------------------------------------------------|         
Ab|-------------------------------------------------------|         
Fb|-------------------------------------------------------|         
Cb|-------------------------------------------------------|        
Gb|--7--9--X-12----7--9--X-12----7--9--X-12----12----7----|         
Cb|--7--9--X-12----7--9--X-12----7--9--X-12----12----7----|         
                                                            x 2 
Db|-------------------------------------------------------|         
Ab|-------------------------------------------------------|         
Fb|-------------------------------------------------------|         
Cb|-------------------------------------------------------|         
Gb|--7--9--X-0----7--9--X-0----7--9--X-0---12-12---7-7----|         
Cb|--7--9--X-0----7--9--X-0----7--9--X-0---12-12---7-7----|         


 Verse 
                               PM-------------------------------------------| 
Db|---------------------------------------------------------------------------| 
Ab|---------------------------------------------------------------------------| 
Fb|---------------------------------------------------------------------------| 
Cb|---------------------------------------------------------------------------| 
Gb|--9------------12------7------7--9--X-X-7--9---X-X-X-7---9-----------------| 
cb|--9------------12------7------7--9--X-X-7--9---X-X-X-7---9-----9p7-4--x-0--| 

   PM--------------------------------------------| 
Db|---------------------------------------------------| 
Ab|---------------------------------------------------| 
Fb|---------------------------------------------------| 
Cb|---------------------------------------------------| 
Gb|--7--9--X-X-7--9---X-X-X-7---9---------------------| 
Cb|--7--9--X-X-7--9---X-X-X-7---9--9-7-4-2-0-7--9-12--| 


 Pre-Chorus 

Db|-----------------------------------------------------------------------------------| 
Ab|-----------------------------------------------------------------------------------| 
Fb|-----------------------------------------------------------------------------------| 
Cb|-----------------------------------------------------------------------------------| 
Gb|--9p7--9--12--7---9---------9-9p7--9--14--7---9----X---X---X-X---X-X---X---X-X-----| 
Cb|--9p7--9--12--7---9---------9-9p7--9--14--7---9----X---X---X-X---X-X---X---X-X-----| 
     

Db|---------------------------------------------------------------------------------------| 
Ab|---------------------------------------------------------------------------------------| 
Fb|---------------------------------------------------------------------------------------| 
Cb|---------------------------------------------------------------------------------------| 
Gb|--9p7--9--12--7---9---------9-9p7--9--14--7---9---X--X---X-X-----X--X-X----X--X-X---X--| 
Cb|--9p7--9--12--7---9---------9-9p7--9--14--7---9---X--X---X-X-----X--X-X----X--X-X---X--| 


 Chorus 


Db|----------------------------------------------------| 
Ab|----------------------------------------------------| 
Fb|----------------------------------------------------| 
Cb|----------------------------------------------------| 
Gb|--7--9--X-12---7--9--X-12---7--9--X-12---12----7----| 
Cb|--7--9--X-12---7--9--X-12---7--9--X-12---12----7----| 

Db|------------------------------------------------------| 
Ab|------------------------------------------------------| 
Fb|------------------------------------------------------| 
Cb|------------------------------------------------------| 
Gb|--7--9--X-0----7--9--X-0----7--9--X-0----12-12---7-7--| 
Cb|--7--9--X-0----7--9--X-0----7--9--X-0----12-12---7-7--| 

Db|----------------------------------------------------| 
Ab|----------------------------------------------------| 
Fb|----------------------------------------------------| 
Cb|----------------------------------------------------| 
Gb|--7--9--X-12---7--9--X-12---7--9--X-12---12----7----| 
Cb|--7--9--X-12---7--9--X-12---7--9--X-12---12----7----| 

Db|----------------------------------------------------------| 
Ab|----------------------------------------------------------| 
Fb|----------------------------------------------------------| 
Cb|----------------------------------------------------------| 
Gb|--7--9--X-0----7--9--X-0----7--9--X-0----12-12---7-7-7-7--| 
Cb|--7--9--X-0----7--9--X-0----7--9--X-0----12-12---7-7-7-7--| 

Db|----------------------------------------------------| 
Ab|----------------------------------------------------| 
Fb|----------------------------------------------------| 
Cb|----------------------------------------------------| 
Gb|--7--9--X-X-12---7--9----X-7--9--X-X-12---7--9--12--| 
Cb|--7--9--X-X-12---7--9----X-7--9--X-X-12---7--9--12--| 

Db|----------------------------------------------------| 
Ab|----------------------------------------------------| 
Fb|----------------------------------------------------| 
Cb|----------------------------------------------------| 
Gb|--7--9--X-X-12---7--9-----X-16--X-14----12-7-7-7----| 
Cb|--7--9--X-X-12---7--9-----X-16--X-14----12-7-7-7----| 

Db|----------------------------------------------------| 
Ab|----------------------------------------------------| 
Fb|----------------------------------------------------| 
Cb|----------------------------------------------------| 
Gb|--9------------------7---9-----------------12\------| 
Cb|--9------------------7---9--------------------------| 


 Verse 

   PM----------------------------|        PM-----| 
Db|----------------------------------------------------| 
Ab|----------------------------------------------------| 
Fb|----------------------------------------------------| 
Cb|----------------------------------------------------| 
Gb|----------------------------------------------------| pinch 
Cb|--7--9--X-X-7--9---X-X-X-7---9------9p7--0-0-0--ph--| harmonic 

   PM----------------------------|    PM-----| 
Db|------------------------------------------------------| 
Ab|------------------------------------------------------| 
Fb|------------------------------------------------------| 
Cb|------------------------------------------------------| 
Gb|-------------------------------------------------5ph--| 
Cb|--7--9--X-X-7--9---X-X-X-7---9--9p7--0-0-0-7~--0------| 

   PM----------------------------|          PM---| 
Db|------------------------------------------------------| 
Ab|------------------------------------------------------| 
Fb|-----------------------------------------------7hb----| 
Cb|-------------------------------------9P7--------------| 
Gb|-----------------------------------------9-9-7--------| 
Cb|--7--9--X-X-7--9---X-X-X-7---9---X-X------------------| 

   PM----------------------------|    PM-----| 
Db|------------------------------------------------------| 
Ab|------------------------------------------------------| 
Fb|------------------------------------------------------| 
Cb|------------------------------------------------------| 
Gb|-------------------------------------------------5ph--| 
Cb|--7--9--X-X-7--9---X-X-X-7---9--9p7--0-0-0-7~--0------| 


 Pre-Chorus 

Db|----------------------------------------------------------------------------| 
Ab|----------------------------------------------------------------------------| 
Fb|----------------------------------------------------------------------------| 
Cb|----------------------------------------------------------------------------| 
Gb|--9p7--9--12--7---9-----9-9p7--9--14--7---9----X---X---X-X---X-X---X---X-X--| 
Cb|--9p7--9--12--7---9-----9-9p7--9--14--7---9----X---X---X-X---X-X---X---X-X--| 
     

Db|-----------------------------------------------------------------------------------| 
Ab|-----------------------------------------------------------------------------------| 
Fb|-----------------------------------------------------------------------------------| 
Cb|-----------------------------------------------------------------------------------| 
Gb|--9p7--9--12--7---9-----9-9p7--9--14--7---9---X--X---X-X-----X--X-X----X--X-X---X--| 
Cb|--9p7--9--12--7---9-----9-9p7--9--14--7---9---X--X---X-X-----X--X-X----X--X-X---X--| 


 Chorus 

Db|----------------------------------------------------| 
Ab|----------------------------------------------------| 
Fb|----------------------------------------------------| 
Cb|----------------------------------------------------| 
Gb|--7--9--X-12---7--9--X-12---7--9--X-12---12----7----| 
Cb|--7--9--X-12---7--9--X-12---7--9--X-12---12----7----| 

Db|----------------------------------------------------| 
Ab|----------------------------------------------------| 
Fb|----------------------------------------------------| 
Cb|----------------------------------------------------| 
Gb|--7--9--X-0----7--9--X-0----X-16--X-14----12-7-7-7--| 
Cb|--7--9--X-0----7--9--X-0----X-16--X-14----12-7-7-7--| 

Db|----------------------------------------------------| 
Ab|----------------------------------------------------| 
Fb|----------------------------------------------------| 
Cb|----------------------------------------------------| 
Gb|--7--9--X-12---7--9--X-12---7--9--X-12---12----7----| 
Cb|--7--9--X-12---7--9--X-12---7--9--X-12---12----7----| 

Db|----------------------------------------------------| 
Ab|----------------------------------------------------| 
Fb|----------------------------------------------------| 
Cb|----------------------------------------------------| 
Gb|--7--9--X-0----7--9--X-0----X-16--X-14----12-7-7-7--| 
Cb|--7--9--X-0----7--9--X-0----X-16--X-14----12-7-7-7--| 


 Break 

       PM-----------------------------|    PM-------------------------| 
Db|---------------------------------------------------------------------------| 
Ab|---------------------------------------------------------------------------| 
Fb|---------------------------------------------------------------------------| 
Cb|---------------------------------------------------------------------------| x 7 
Gb|----------------------------------------------------------------------12\--| 
Cb|--7h9--9-9-9-9--7h9--9-9-9-9-9-9-9-9--7h9--9-9-9-9--7h9--9-9-9-9-9-9--12\--| 

       PM-----------------------------|    PM-------------------------| 
Db|---------------------------------------------------------------------------| 
Ab|---------------------------------------------------------------------------| 
Fb|---------------------------------------------------------------------------| 
Cb|---------------------------------------------------------------------------| x 7 
Gb|---------------------------------------------------------------------------| 
Cb|--7h9--9-9-9-9--7h9--9-9-9-9-9-9-9-9--7h9--9-9-9-9--7h9--9-9-9-9-9-9-9-9---| 


 Chorus 

Db|----------------------------------------------------| 
Ab|----------------------------------------------------| 
Fb|----------------------------------------------------| 
Cb|----------------------------------------------------| 
Gb|--7--9--X-12---7--9--X-12---7--9--X-12---12----7----| 
Cb|--7--9--X-12---7--9--X-12---7--9--X-12---12----7----| 

Db|----------------------------------------------------| 
Ab|----------------------------------------------------| 
Fb|----------------------------------------------------| 
Cb|----------------------------------------------------| 
Gb|--7--9--X-0----7--9--X-0----X-16--X-14----12-7-7-7--| 
Cb|--7--9--X-0----7--9--X-0----X-16--X-14----12-7-7-7--| 

Db|----------------------------------------------------| 
Ab|----------------------------------------------------| 
Fb|----------------------------------------------------| 
Cb|----------------------------------------------------| 
Gb|--7--9--X-12---7--9--X-12---7--9--X-12---12----7----| 
Cb|--7--9--X-12---7--9--X-12---7--9--X-12---12----7----| 

Db|----------------------------------------------------| 
Ab|----------------------------------------------------| 
Fb|----------------------------------------------------| 
Cb|----------------------------------------------------| 
Gb|--7--9--X-0----7--9--X-0----X-16--X-14----12-7-7-7--| 
Cb|--7--9--X-0----7--9--X-0----X-16--X-14----12-7-7-7--| 


 Outro 

Db|--------------------------------------------------------| 
Ab|--------------------------------------------------------| 
Fb|--------------------------------------------------------| 
Cb|--------------------------------------------------------| 
Gb|--16---14---12---7--7--12----16---14---12---7--X-X---X--| 
Cb|--16---14---12---7--7--12----16---14---12---7--X-X---X--| 

Db|----------------------------------| 
Ab|----------------------------------| 
Fb|----------------------------------| 
Cb|----------------------------------| 
Gb|--16---14---12---7--7--12--7--9\--| 
Cb|--16---14---12---7--7--12--7--9\--| 



************************************ 

| x   Dead note 
| h   Hammer-on 
| p   Pull-off 
| /   Slide up 
| \   Slide down 
| ~   Vibrato 
| PM  Palm mute 

************************************ 
		  

See also:

tabs Placebo - Without you I'm Nothing tabs Kelly Clarkson - Since u been gone tabs Maroon 5 - She will be loved (intro) tabs Cyndi Lauper - Time After Time tabs Pink - Who knew tabs Black Eyed Peas - My humps
e-chords

Other versions:

tabs Thousand Foot Krutch - Can't Stop This
auto scroll beats size up size down change color hide chords drawings
tab show chords e-chords YouTube Clip e-chords hide all tabs e-chords go to top tab

share