This Town Needs Guns

And Ill Tell You For Why

This Town Needs Guns

tabs

by  BRUNBLAZKOWSKI

save to print version add songbook text version e-mail correct tuner
chordsukulelecavacokeyboardtabbassdrumsharmonicaflute Guitar Pro
close

there isn't a video lesson for this song

chords

And Ill Tell You For Why

	  		 

Intro 
Guitar 1 (Fingerpicked): 
             T    T         T 
D||------------------------------| 
B||----------8-------------------| 
G||--0----4-------7--0-----------| 
D||--0---------4------------7/9--| x11 
G||------------------------------| 
C||--0h2-------------0h2h4~------| 



Pre-Chorus 
Guitar 1: 
           T               T 
D||----------------------------| 
B||---------------0~-----------| 
G||--0-----7/9----0~-----5\4~--| 
D||--0h2~--------(0h2)~--------| x2 
G||----------------------------| 
C||--0~-----------0~-----------| 



Verse: 
Guitar 1: 
             T    T         T 
D||------------------------------| 
B||----------8-------------------| 
G||--0----4-------7--0-----------| 
D||--0---------4------------7/9--| x12 
G||------------------------------| 
C||--0h2-------------0h2h4~------| 


Guitar 2: 
D||--14~-------------------------|--14~------------------------------| 
B||------------13~---------------|------------13~----------13~-------| 
G||-------16~---------------12~--|-------16~--------------------16~--| 
D||--------------------14~-------|--------------------14~------------| x2 
G||------------------------------|-----------------------------------| 
C||------------------------------|-----------------------------------| 


D||--14~-------------------------|--14~------------------------------| 
B||------------13~---------------|------------13~---------------10~--| 
G||-------16~---------------12~--|-------16~---------------12~--12~--| 
D||--------------------14~-------|--------------------14~-------14~--| 
G||------------------------------|-----------------------------------| 
C||------------------------------|-----------------------------------| 



Pre-Chorus 
Guitar 1: 
           T               T 
D||----------------------------| 
B||---------------0~-----------| 
G||--0-----7/9----0~-----5\4~--| 
D||--0h2~--------(0h2)~--------| x4 
G||----------------------------| 
C||--0~-----------0~-----------| 

            T              T       T 
D||----------------------------------------| 
B||----------------------------------------| 
G||--0~-------------0h2h4--12-7------------| 
D||----------------------------5p4---7/9~--| 
G||---------11/12--------------------------| 
C||--0h2~-----------0~---------------------| 



Chorus 
Guitar 1: 
D||----------------------------------------------------------| 
B||------0-----------0-----------0-----------3p0-------------| 
G||--------0-----------0-----------0------------0h2h4-4-0----| 
D||----------7-----------4-----------4---4h5--------------0--| 
G||----4-----------2-----------0-----------------------------| 
C||--4---------4-2---------2-0---------0---------------------| 


D||----------------------------------------------------------| 
B||------0-----------0-----------0---------------------------| 
G||--------------------0-----------0-----2~----4p0-----0-----| 
D||--------7-7-----------4-----------4---0~---------------0--| 
G||----4-----------2-----------0-------------------4h5p0-----| 
C||--4---------4-2---------2-0---------0---------------------| 


D||------0---------------------------------------------------| 
B||--------0---------0-----------0-----------3p0-------------| 
G||----------0---------0-----------0------------0h2h4-4-0----| 
D||----------------------4-----------4---4h5--------------0--| 
G||----4-----------2-----------0-----------------------------| 
C||--4---------4-2---------2-0---------0---------------------| 


D||------------------0-----------| 
B||------0-------------0-----0~--| 
G||--------0-------------0---0~--| 
D||----------7-------------------| 
G||----4-----------2-------------| 
C||--4---------4-2---------2-0~--| 


Guitar 2: 
D||--12--10------12--10--------------10-----------------------------| 
B||----------------------12-----------------------------------------| 
G||--------------------------12----------12--10--9------------------| 
D||-----------------------------------------------------12------10--| x2 
G||-----------------------------------------------------------------| 
C||-----------------------------------------------------------------| 



Interlude 
Guitar 1: 
D||---------------------------------------------| 
B||------------------------3-----------3--------| 
G||-------4/7--7\4--4--------2-0---------2-0----| 
D||--0h2-----------------0-------0---0-------0--| x3 
G||---------------------------------------------| 
C||--0---------0----2--4-----------4------------| 


D||------------------------| 
B||--------------------0~--| 
G||-------4/7--7\4--4------| 
D||--0h2-------------------| 
G||------------------------| 
C||--0---------0----2--4~--| 


Guitar 2: 
D||---------------------| 
B||--13-----------------| 
G||-----14-12-----------| 
D||-----------14\12p10--| x8 
G||---------------------| 
C||---------------------| 


D||--------------------------------| 
B||--13----------------------------| 
G||-----14-12~-----------12~-------| 
D||---------------14~---------14~--| 
G||--------------------------------| 
C||--------------------------------| 



Verse: 
Guitar 1: 
             T    T         T 
D||------------------------------| 
B||----------8-------------------| 
G||--0----4-------7--0-----------| 
D||--0---------4------------7/9--| x12 
G||------------------------------| 
C||--0h2-------------0h2h4~------| 


Guitar 2: 
D||--14~-------------------------|--14~------------------------------| 
B||------------13~---------------|------------13~----------13~-------| 
G||-------16~---------------12~--|-------16~--------------------16~--| 
D||--------------------14~-------|--------------------14~------------| 
G||------------------------------|-----------------------------------| 
C||------------------------------|-----------------------------------| 


D||--14~-------------------------|--14~------------------------------| 
B||------------13~---------------|------------13~----------13~-------| 
G||-------16~--------------------|-------16~--------------------16~--| 
D||------------------------------|--------------------14~------------| 
G||------------------------------|-----------------------------------| 
C||------------------------------|-----------------------------------| 


D||--14~-------------------------|--14~------------------------------| 
B||------------13~---------------|------------13~---------------10~--| 
G||-------16~---------------12~--|-------16~---------------12~--12~--| 
D||--------------------14~-------|------------------------------14~--| 
G||------------------------------|-----------------------------------| 
C||------------------------------|-----------------------------------| 



Pre-Chorus 
Guitar 1: 
           T               T 
D||----------------------------| 
B||---------------0~-----------| 
G||--0-----7/9----0~-----5\4~--| 
D||--0h2~--------(0h2)~--------| x4 
G||----------------------------| 
C||--0~-----------0~-----------| 

            T              T       T 
D||----------------------------------------| 
B||----------------------------------------| 
G||--0~-------------0h2h4--12-7------------| 
D||----------------------------5p4---7/9~--| 
G||---------11/12--------------------------| 
C||--0h2~-----------0~---------------------| 



Chorus 
Guitar 1: 
D||----------------------------------------------------------| 
B||------0-----------0-----------0-----------3p0-------------| 
G||--------0-----------0-----------0------------0h2h4-4-0----| 
D||----------7-----------4-----------4---4h5--------------0--| 
G||----4-----------2-----------0-----------------------------| 
C||--4---------4-2---------2-0---------0---------------------| 


D||----------------------------------------------------------| 
B||------0-----------0-----------0---------------------------| 
G||--------------------0-----------0-----2~----4p0-----0-----| 
D||--------7-7-----------4-----------4---0~---------------0--| 
G||----4-----------2-----------0-------------------4h5p0-----| 
C||--4---------4-2---------2-0---------0---------------------| 


D||------0---------------------------------------------------| 
B||--------0---------0-----------0-----------3p0-------------| 
G||----------0---------0-----------0------------0h2h4-4-0----| 
D||----------------------4-----------4---4h5--------------0--| 
G||----4-----------2-----------0-----------------------------| 
C||--4---------4-2---------2-0---------0---------------------| 


D||------0-----------0-----------| 
B||--------0-----------0-----0~--| 
G||----------0-----------0---0~--| 
D||------------------------------| 
G||----4-----------2-------------| 
C||--4---------4-2---------2-0~--| 


Guitar 2: 
D||--12--10------12--10--------------10-----------------------------| 
B||----------------------12-----------------------------------------| 
G||--------------------------12----------12--10--9------------------| 
D||-----------------------------------------------------12------10--| x2 
G||-----------------------------------------------------------------| 
C||-----------------------------------------------------------------| 



Interlude 
Guitar 1: 
D||---------------------------------------------| 
B||------------------------3-----------3--------| 
G||-------4/7--7\4--4--------2-0---------2-0----| 
D||--0h2-----------------0-------0---0-------0--| x4 
G||---------------------------------------------| 
C||--0---------0----2--4-----------4------------| 


Guitar 2: 
D||---------------------| 
B||--13-----------------| 
G||-----14-12-----------| 
D||-----------14\12p10--| x8 
G||---------------------| 
C||---------------------| 


D||--------------------------------| 
B||--13----------------------------| 
G||-----14-12~-----------12~-------| 
D||---------------14~---------14~--| 
G||--------------------------------| 
C||--------------------------------| 



Bridge 
Guitar 1: 
D||--------------------------------------------------------------------| 
B||--------------------------------------------------------------------| 
G||--7-7---7-7-7-7-7---7-7-7-------------------------------------------| 
D||--9-9---9-9-9-9-9---9-9-9-12-12---12-12-12---9---9-9-9---9---9-9-9--| 
G||--5-5---5-5-5-5-5---5-5-5-9--9----9--9--9----4---4-4-4---4---4-4-4--| 
C||--0-0---0-0-0-7-7---7-7-7-9--9----9--9--9----4---4-4-4---4---4-4-4--| 


D||--------------------------------------------------------------------| 
B||--------------------------------------------------------------------| 
G||--7-7---7-7-7-7-7---7-7-7-------------------------------------------| 
D||--9-9---9-9-9-9-9---9-9-9-12-12---12-12-12---9---9-9-9---9---9-9----| x2 
G||--5-5---5-5-5-5-5---5-5-5-9--9----9--9--9----4---4-4-4---4---4-4----| 
C||--0-0---0-0-0-7-7---7-7-7-9--9----9--9--9----4---4-4-4---4---4-4----| 



Breakdown 
Guitar 1: 
D||---------------------------------------------------------------------| 
B||---------------------------------------------------------------------| 
G||--7-7-7-7-7-7-7-7-7-7-7-7--------------------------------------------| 
D||--9-9-9-9-9-9-9-9-9-9-9-9-12-12-12-12-12-12-9-9-9-9-9-9-9-9-9-9-9-9--| 
G||--5-5-5-5-5-5-5-5-5-5-5-5-9--9--9--9--9--9--4-4-4-4-4-4-4-4-4-4-4-4--| 
C||--0-0-0-0-0-0-7-7-7-7-7-7-9--9--9--9--9--9--4-4-4-4-4-4-4-4-4-4-4-4--| 


D||---------------------------------------------------| 
B||---------------------------------------------------| 
G||---------------------------------------------------| 
D||--4-4-4-4-4-4-5-5-5-5-5-5-7-7-7-7-7-7-9-9-9-9-9-9--| x4 
G||--0-0-0-0-0-0-2-2-2-2-2-2-4-4-4-4-4-4-4-4-4-4-4-4--| 
C||--0-0-0-0-0-0-2-2-2-2-2-2-4-4-4-4-4-4-4-4-4-4-4-4--| 



Guitar 2: 
D||--12--10----------------------------------------| 
B||----------12-------------12-------------12------| 
G||--------------12--9--12------12--9--12------12--| 
D||------------------------------------------------| x3 
G||------------------------------------------------| 
C||------------------------------------------------| 


D||--12--10--------------------------------------------------| 
B||----------12-------------12---------12-12-12/13-13-13-13--| 
G||--------------12--9--12------12--9--x--x--x-/x--x--x--x---| 
D||------------------------------------9--9--9-/10-10-10-10--| 
G||----------------------------------------------------------| 
C||----------------------------------------------------------| 


D||---------------------------------------------------------------------------| 
B||--13-13-13-13-13-13-13-13-13-13-13/15-15-15-15-15-15/18-18-18-18-17-17-17--| 
G||--x--x--x--x--x--x--x--x--x--x--x-/x--x--x--x--x--x-/x--x--x--x--x--x--x---| 
D||--10-10-10-10-10-10-10-10-10-10-10/12-12-12-12-12-12/15-15-15-15-14-14-14--| 
G||---------------------------------------------------------------------------| 
C||---------------------------------------------------------------------------| 


D||---------------------------------------------------------------------------| 
B||--20-20-20-20-20-20-20-20-20-20-20-20-20-20-20-20-20-20-20-17-17-17-17/20--| 
G||--x--x--x--x--x--x--x--x--x--x--x--x--x--x--x--x--x--x--x--x--x--x--x-/x---| 
D||--17-17-17-17-17-17-17-17-17-17-17-17-17-17-17-17-17-17-17-14-14-14-14/17--| 
G||---------------------------------------------------------------------------| 
C||---------------------------------------------------------------------------| 


D||---------------------------------------------------------------------------| 
B||--20-20-20-20-20-20-20-20-20-20-20-20-20-20-20-20-20-20-20-17-17-17-17-17--| 
G||--x--x--x--x--x--x--x--x--x--x--x--x--x--x--x--x--x--x--x--x--x--x--x--x---| 
D||--17-17-17-17-17-17-17-17-17-17-17-17-17-17-17-17-17-17-17-14-14-14-14-14--| 
G||---------------------------------------------------------------------------| 
C||---------------------------------------------------------------------------| 


D||-------------------------------------------------------------------------------| 
B||--20-20-20-18-18-18-17-17-17-15-15-15-17-17-17-15-15-15-13-13-13-12-12-12-13~--| 
G||--x--x--x--x--x--x--x--x--x--x--x--x--x--x--x--x--x--x--x--x--x--x--x--x--x----| 
D||--17-17-17-15-15-15-14-14-14-12-12-12-14-14-14-12-12-12-10-10-10-9--9--9--10~--| 
G||-------------------------------------------------------------------------------| 
C||-------------------------------------------------------------------------------| 



Outro 
Guitar 1: 
             T    T         T 
D||------------------------------| 
B||----------8-------------------| 
G||--0----4-------7--0-----------| 
D||--0---------4------------7/9--| x8 
G||------------------------------| 
C||--0h2-------------0h2h4~------|  
		  

See also:

tabs Ira! - Poço de Sensibilidade (Solo - Acustico Mtv) tabs Deep Purple - Smoke On The Water tabs Deep Purple - Smoke on the water (intro) tabs Ira! - Eu Quero Sempre Mais (Com Pitty, intro) tabs Deep Purple - Smoke on the Water (ver. 2) tabs Deep Purple - Knocking At Your Back Door
e-chords

Other versions:

tabs This Town Needs Guns - And Ill Tell You For Why
auto scroll beats size up size down change color hide chords drawings
tab show chords e-chords YouTube Clip e-chords hide all tabs e-chords go to top tab

share