Therion

The Wings Of The Hydra

Therion

tabs

by  HEAVY MASTER

save to print version add songbook text version e-mail correct tuner
chordsukulelecavacokeyboardtabbassdrumsharmonicaflute Guitar Pro
close

there isn't a video lesson for this song

chords

The Wings Of The Hydra

	  		HOLA PARA ESTA CANCION SE NECESITAN SIERTAS HABILIDADES METALERAS 
SOLO TOMA EL RITMO: 

- PALM MUTE 
INTRO 
x3 
e -------------------------------------------------  
B ------------------------------------------------- 
G ------------------------------------------------- 
D ------------------------------------------------- 
A --2-2-2-2-2-2---------------------2-2-2-2-2-2---------- 
E --0-0-0-0-0-0---4p0-0-3p0-0-1/3---0-0-0-0-0-0---4p0-0-3p0-0-1/3--- 
    - - - - - -                     - - - - - - 

ESTO ES APARTE 
e -------------------------------------- 
B -------------------------------------- 
G -------------------------------------- 
D -------------------------------------- 
A --2-2-2-2-2-2---6----5----3/5--2-------------------- 
E --0-0-0-0-0-0---4-00-3-00-1/3--0---------------------- 

AUMENTA UN POCO LA VELOCIDAD 
X3 
e -------------------------------------------------  
B ------------------------------------------------- 
G ------------------------------------------------- 
D ------------------------------------------------- 
A --2-2-2-2-2-2---------------------2-2-2-2-2-2---------- 
E --0-0-0-0-0-0---4p0-0-3p0-0-1/3---0-0-0-0-0-0---4p0-0-3p0-0-1/3--- 
    - - - - - -                     - - - - - - 

e ----------------------------------------------- 
B ----------------------------------------------- 
G ------------------------------------------------ 
D ------------------------------------------------- 
A --2-2-2-2-2-2-----------------6--3--2--------------------- 
E --0-0-0-0-0-0---4p0-0-3p0-0-1/4--1--0---------------- 

VERSE 1 
x3 
e -------------------------------------- 
B -------------------------------------- 
G -------------------------------------- 
D -------------------------------------- 
A --2-2-2-2-2-2---6----5----3/5---------------------- 
E --0-0-0-0-0-0---4-00-3-00-1/3------------------------ 

GUITAR SOLISTA 

e -------------------------------------- 
B -------------------------------------- 
G ----44p5p4--5-4-2p4--4-5-4--2-4-5-4-4- 
D -------------------------------------- 
A ---------------------------------------- 
E -------------------------------------- 

GUITARRA RITMICA 

e -------------------------------------- 
B -------------------------------------- 
G ------------------------------------ 
D -------------------------------------- 
A ---2---3/5--6--3--2---------------------------- 
E ---0---1/3--4--1--0-------------------------- 

LAS DOS GUITARRAS LO MISMO PERO MAS RAPIDO 

e -------------------------------------- 
B -------------------------------------- 
G ------------------------------------ 
D -------------------------------------- 
A ---2222---3/5--6666--3333------------------------------ 
E ---0000---1/3--4444--1111---------------------------- 

e -------------------------------------------------  
B ------------------------------------------------- 
G ------------------------------------------------- 
D ------------------------------------------------- 
A --2-2-2-2-2-2---------------------2-2-2-2-2-2---6-5-3/5----- 
E --0-0-0-0-0-0---4p0-0-3p0-0-1/3---0-0-0-0-0-0---4-3-1/3------ 

Y OTRA VES TODO DE NUEVO 
ASTA LA PARTE DE EL RIFF 
CAMBIA LA SOLISTA: 

e ------77p8p7--8-7-5-7-7-5-7--5-7-8-7-5- 
B -------------------------------------- 
G -------------------------------------- 
D -------------------------------------- 
A ---------------------------------------- 
E -------------------------------------- 
TERMINANDO ESA PARTE EMPIEZA ESTA: 
X5 O TALVEZ 4 ALLI MIDELE 
e --------------------------------------------- 
B --------------------------------------------- 
G --------------------------------------------- 
B ---------------------------------------------- 
A --5/4--5/4-2-4-5--7--9---7-5------------------------------- 
E --3/2--3/2-0-2-3--5--7-0-5-3-------------------------------- 
Y OTRAVES EL VERSE 1 Y LO QUE LE SIGE 

ya cuando acaba de cantar empieza la segunda parte 
solo mantiene la limpieza y el ritmo 

NO ESTOY SEGURO CUANTOS SON, SOLO  ESCUCHALA 
e -------------------------------------- 
B -------------------------------------- 
G -------------------------------------- 
D -------------------------------------- 
A --2-------------------------------------- 
E --000000000004p03010000000000----------- 

ESTO ES DESPUES NO LO TOQUE TODO DE CORRIDO SOLO ESCUCHALA 
e --------------------------------------- 
B --------------------------------------- 
G -------------------------------------- 
D --------------------------------------- 
A --22222222-3-5-6---222222--3-5-6------- 
E --00000000-1-3-4---000000--1-3-4------ 


SOLO GUITARRA SOLISTA (MUY SENSILLO NO LO TOQUES MUY CUADRADO SINO NO TE VA A SALIR) 
e|-12~--12~--12~-12~-------12~--12~--12~--12~-------12/14-14/15-15\14-- 
B|-------------------12h14--------------------12h14-------------------- 
G|--------------------------------------------------------------------- 
D|--------------------------------------------------------------------- 
A|--------------------------------------------------------------------- 
E|--------------------------------------------------------------------- 

--14\12-12\10-10/12-12~-12~-------14~--14~-14~--14~-14~------- 
----------------------------12h14-----------------------14h16- 
-------------------------------------------------------------- 
-------------------------------------------------------------- 
-------------------------------------------------------------- 
-------------------------------------------------------------- 

-14~--14~-14~--14~-14~-------14/16-16/17-17\16-16\14-14/16-16/19~-19~--| 
-----------------------14h16-------------------------------------------| 
-----------------------------------------------------------------------| 
-----------------------------------------------------------------------| 
-----------------------------------------------------------------------| 
-----------------------------------------------------------------------| 
                                                 ______   __________ 
                                                | 1.     | 2. 
|------------------------------------------------------||-------12\----| 
|---------------------------------10bf-10--8~----8p7---||-8p7----------| 
|-9-9-9-9-9-9-9-9-9-9-9-9-9-9-9-9-------------9------7-||-----7--------| 
|------------------------------------------------------||--------------| 
|------------------------------------------------------||--------------| 
|------------------------------------------------------||--------------| 

BUENO ESO ES TODO DEDICADA AAA EMMMMMMM  A MI JAJAJA 
DEVES ESCUCHAR ESTA CANCION PORQUE SI NO NO TE VA A SALIR 
ADIOS.  POLA
		  

auto scroll beats size up size down change color hide chords drawings
tab show chords e-chords YouTube Clip e-chords hide all tabs e-chords go to top tab

share