Therion

Son Of The Sun

Therion

tabs

by  HEAVY MASTER

save to print version add songbook text version e-mail correct tuner
chordsukulelecavacokeyboardtabbassdrumsharmonicaflute Guitar Pro
close

there isn't a video lesson for this song

chords

Son Of The Sun

	  		SON OF THE SUN BY THERION 
OK ESTA MUY SECILLA PERO TANPOCO NO ESTA MUY FACIL 
AVER SI ME ENTIENDEN JAJAJA 

INTRO X2 
|----------------------------------------------- 
|-------------------------------------------------------------------11b13b11------------------ 
|--13b12-13b12--10---------13b12-13b12--10-1010--13b12-13b12---10------------13b12-13b12---10-----10--- 
|-------------------13-13----------------------------------------------------------------------13---- 
|------------------------------------------------------------------------------------ 
|------------------------------------------------------------------------------------ 

|------------------------------------------------ 
|----------------------------------------------- 
|---13b12-13b12---10--1010---13b12-13b12--10----10- 
|--------------------------------------------13--- 
|------------------------------------------------ 
|------------------------------------------------ 

|------------------------------------------------------ 
|----------------------------------------------------- 
|--13b12-13b12--10----10-------------------------------------------- 
|------------------13----11-13--10-11----10--------------------- 
|-------------------------------------13----11------------ 
|-----------------------------------------------13------ 

INTRO GUITAR 2 
X2 
|---------------------------------------------- 
|---------------------------------------------- 
|---------------5-5-5-5-5-5--6-6-6-6--------------------- 
|-3-3-3-3-3-3---5-5-5-5-5-5--6-6-6-6--6-6-6--8-8-8------------------- 
|-3-3-3-3-3-3---3-3-3-3-3-3--4-4-4-4--6-6-6--8-8-8------------------- 
|-1-1-1-1-1-1-------------------------4-4-4--6-6-6--------- 

|------------------------------------------------------------- 
|------------------------------------------------------------- 
|--------------------------------------6-6-6-8-8-8-------------------- 
|-3-3-3-3-3---6-6-6-6-6----8-8-8-8-8---6-6-6-8-8-8--------------------- 
|-3-3-3-3-3---6-6-6-6-6----8-8-8-8-8---4-4-4-6-6-6----------------------- 
|-1-1-1-1-1---4-4-4-4-4----6-6-6-6-6------------------------------ 

ESA PARTE NO ME LA SE JIJIJIJIJI 
RIFT 1   
X2 
|----------------------------- 
|------------------------------------------------------- 
|-----------------------------------------------------------66---- 
|-3-----3-----3-----3-----3-----33----6-----6-----6-----66--66------------ 
|-3-----3-----3-----3-----3-----33----6-----6-----6-----66--44------------ 
|-1-1-1-1-1-1-1-1-1-1-1-1-1-1-1-11----4-4-4-4-4-4-4-4-4-44-------------- 

RIFT 2 

|------------------------------------------ 
|----------------------------------------- 
|-666666666666666666666----------------------88888888--66666666666---------------- 
|-666666666666666666666--666666666666666666--88888888--66666666666---66666666666----3333---------------------------- 
|-444444444444444444444--666666666666666666--66666666--44444444444---66666666666----3333--------------------------- 
|------------------------444444444444444444--------------------------44444444444----1111--------- 

|------------------------------------------ 
|----------------------------------------- 
|-666666666666666666666----------------------88888888--66666666666---88888------------- 
|-666666666666666666666--666666666666666666--88888888--66666666666---88888-------------------------------- 
|-444444444444444444444--666666666666666666--66666666--44444444444---66666------------------------------- 
|------------------------444444444444444444----------------------------------------------- 
RIFT 3 
X2 
|-----------------------------| 
|------------------------------| 
|---------------------------| 
|---------------------------| 
|--3-------3-------3-------3-6---| 
|--1-0-0-0-1-0-0-0-1-0-0-0-1-4---| 

Chorus 

|----------------- 
|--------------- 
|--------------------------------------4-444--6666--| 
|--666666666666--99999999999-----------4-444--6666--| 
|--666666666666--99999999999---222222--2-222--4444--| 
|--444444444444--77777777777---000000---------------| 

|----------------- 
|--------------- 
|------------------------------------------------- 
|--666666666666--99999999999---44444--------------| 
|--666666666666--99999999999---44444---222222-----| 
|--444444444444--77777777777---22222---000000-----| 

INTRO GUITAR 1  AND GUITAR 2 X1 
RIFT 1 
RIFT 2 
RIFT 3 X1 
Chorus 


RIFT 4  
X9 
|---- 
|------ 
|----- 
|----- 
|----------------------2------| 
|--0-1-0-3-0-3-0-4-0-1---1-0--| 

MUY BIEN AQUI BIENE EL SOLO 

SOLO 

|---------------------------------------------- 
|------------------------------------------------ 
|---10-12-13-12-10----1010--13-12-10----10--------------------------- 
|------------------13----------------13--------------- 
|------------------------------------------------- 
|------------------------------------------------------ 

|---------------------------------------------- 
|----------------------------11-12-11-12-13-12--------------- 
|---10-12-13-17-13-12-10-12----------------------------------- 
|------------------------------------------------- 
|------------------------------------------------- 
|------------------------------------------------------ 

|---------------------------------------------- 
|------------------------------------------------ 
|---10-12-13-12-10----10--------10--------------------- 
|------------------13----10--13----11-13-11-13-15----------------- 
|------------------------------------------------- 
|------------------------------------------------------ 

|---------------------------------------------- 
|------------------13-13/16-13---------------------------- 
|---10-12-13/15-13---------------------------------- 
|------------------------------------------------- 
|------------------------------------------------- 
|------------------------------------------------------ 


BUENO ESO ES TODO LO DEMAS SON LOS RIFT QUE YA PUSE 
DEDICADO A TODAS MIS AMIGAS Y AMANTES JAJAJA 
POLA. 



		  

auto scroll beats size up size down change color hide chords drawings
tab show chords e-chords YouTube Clip e-chords hide all tabs e-chords go to top tab

share