Therion

Eye of Shiva

Therion

tabs Expert expert

save to print version add songbook text version e-mail correct tuner
chordsukulelecavacokeyboardtabbassdrumsharmonicaflute Guitar Pro
close

there isn't a video lesson for this song

chords

Eye of Shiva

	  		  
h hammer on 
p pull off 
~ vibrato 
/ slide up 
\ slide down 
 
standard tuning. 
 
 intro 
|------------------|------------------------------------| 
|------------------|------------------------------------| 
|--------7~--------|--10-9-7----------------------------| 
|--6--7-----6--7~--|---------(5)-7---5--7-(5)-5--8--7---| 
|------------------|------------------------------------| 
|------------------|------------------------------------| 
                     ()'s: only played first time 
 
 riff 1 (1:20) 
|---------------------------------------|----------------------| 
|---------------------------------------|----------------------| 
|------------------5--------------------|----------------------| 
|--3------7--------5--------5--5---5\3--|---3------7-------5---| 
|--3------7--------3--------5--5---5\3--|---3------7-------5---| 
|--1------5-----------------3--3---3\1--|---1------5-------3---| 
 
 
 riff 2 (1:48) 
|--------------------------------------|--------------------------------------| 
|--------------------------------------|--------------------------------------| 
|--------------------------------------|--------------------------------------| 
|--2-2-2-2--2-2-2-2--2-2-2-2--2-2-2-2--|--7-7-7-7--7-7-7-7--7-7-7-7--7-7-7-7--| 
|--2-2-2-2--2-2-2-2--2-2-2-2--2-2-2-2--|--7-7-7-7--7-7-7-7--7-7-7-7--7-7-7-7--| 
|--0-0-0-0--0-0-0-0--0-0-0-0--0-0-0-0--|--5-5-5-5--5-5-5-5--5-5-5-5--5-5-5-5--| 
 
 
 riff 3 (under solo) 
|------------------------------------------------------------| 
|------------------------------------------------------------| 
|--5---5-------------2---2----------------------5---5--------| 
|--5---5----5---5----2---2----2----2---3---3----5---5----5---| 
|--3---3----5---5----0---0----2----2---3---3----3---3----5---| 
|-----------3---3-------------0----0---1---1-------------3---| 
 
 
 Solo 1; part one.(2x, doubled by second guitar second time) 
|-------------------------------------------------------------------| 
|--13--15--13--12---------------------------------------------------| 
|------------------12~-----12-14--14~--12h14p12---------------------| 
|-----------------------14-----------------------14~----12-14-15----| 
|-------------------------------------------------------------------| 
|-------------------------------------------------------------------| 
 
 
 
|-----------------------------15-13-12------------------------------| 
|--15---13~-----------------------------15-13-12--------------------| 
|-------------------14-12~-----------------------14-----------------| 
|-------------14-15-------------------------------------------------| 
|-------------------------------------------------------------------| 
|-------------------------------------------------------------------| 
 
 
 part two 
|-------------------------------------------------------------------| 
|--15--17--17--13--15~--13--12~---12-13-15-13-12--------------------| 
|------------------------------------------------12~---12h14--14~---| 
|-------------------------------------------------------------------| 
|-------------------------------------------------------------------| 
|-------------------------------------------------------------------| 
 
 
 
|--------------------------------15-17~--17-19~---15--13--12-------| 
|-------------------------------------------------------------15---| 
|------------------------------------------------------------------| 
|-14--15--14-14---15\12--12~---------------------------------------| 
|------------------------------------------------------------------| 
|------------------------------------------------------------------| 
 
 
 
|----------------12~---12/13--15~~~------| 
|--/17--13~---15-------------------------| 
|----------------------------------------| 
|----------------------------------------| 
|----------------------------------------| 
|----------------------------------------| 
 
 
 Solo 2  First guitar on top, second on bottom 
|--15--17--15--13--12~---13--12---------------------------------------| 
|--13--15--13--12---------------15~---13--12~---12--15~--15/17--17~---| 
|------------------12~-------12-14~---12-----------------19\17--17~---| 
|------------------------14---------------14~-------15~---------------| 
|---------------------------------------------------------------------| 
|---------------------------------------------------------------------| 
 
 
 
|------------------------------15~-----15-17~---20-20-20\19--19-19-19\17-| 
|-17/20-20~----17--18--17--15-------17-----------------------------------| 
|-17\16-16~--------------------------------------------------------------| 
|------------------------------------------------------------------------| 
|------------------------------------------------------------------------| 
|------------------------------------------------------------------------| 
 
 
 
|--17-17-13~---15--12~-----------| 
|----------------------13--15~~--| 
|--------------------------------| 
|--------------------------------| 
|--------------------------------| 
|--------------------------------| 

		  

auto scroll beats size up size down change color hide chords drawings
tab show chords e-chords YouTube Clip e-chords hide all tabs e-chords go to top tab

share