Therion

Birth Of Venus Illegitima

Therion

tabs

by  ZPAWN

save to print version add songbook text version e-mail correct tuner
chordsukulelecavacokeyboardtabbassdrumsharmonicaflute Guitar Pro
close

there isn't a video lesson for this song

chords

Birth Of Venus Illegitima

	  		


Riff I (X 2) 
e|----------------------------------------------| 
B|------------5-----------------5----8--6-------| 
G|----5--4-5--5---------5--4-5--5---------9-----| 
D|----7--5-7--7---------7--5-7--7---------------| 
A|-0-----------------0--------------------------| 
E|-----------------0----------------------------| 


Riff II (X 2) 
e|-----------------------------------------------------|
B|-----------------------------------------------------|
G|-----------------|-----------------|-----------------| 
D|-----5---4-5-----|-----5---4-5-----|-----5---4-5-----| 
A|-----7---5-7-----|-----7---5-7-----|-----7---5-7-----| 
E|-0-0---0-----0-0-|-0-0---0-----0-0-|-0-0---0-----0-0-| 

G|-------------|-------------|-------------|-------------| 
D|-3-----------|-3-----------|-2-----------|-2-----------| 
A|-3-----------|-3-----------|-2-----------|-2-----------| 
E|-1-----------|-1-----------|-0-----------|-0-----------| 


Riff III (Coro) (X 4) 
G|-----------------|-----------------|-----------------| 
D|-3-3-3-3-3-3-3-3-|-3-3-3-3-3-3-3-3-|-7-7-7-7-9-9-9-9-| 
A|-3-3-3-3-3-3-3-3-|-3-3-3-3-3-3-3-3-|-7-7-7-7-9-9-9-9-| 
E|-1-1-1-1-1-1-1-1-|-1-1-1-1-1-1-1-1-|-5-5-5-5-7-7-7-7-| 

G|-----------------| 
D|-7-7-7-7-7-7-7-7-| 
A|-7-7-7-7-7-7-7-7-| 
E|-5-5-5-5-5-5-5-5-| 


Riff IV (X 2) 
G|----------------|----------------|----------------| 
D|-5----5---4-5---|-5----5---4-5---|-5----5---4-5---| 
A|-7----7---5-7---|-7----7---5-7---|-7----7---5-7---| 
E|--0-0---0-----0-|--0-0---0-----0-|--0-0---0-----0-| 

G|-------------|-------------| 
D|-3-----------|-2-----------| 
A|-3-----------|-2-----------| 
E|-1-----------|-0-----------| 


Riff V 
G|-----------------|-----------------|-----------------| 
D|-3-3-3-3-3-3-3-3-|-3-3-3-3-3-5-5-7-|-7-7-7-7-7-7-7-7-| 
A|-3-3-3-3-3-3-3-3-|-3-3-3-3-3-5-5-7-|-7-7-7-7-7-7-7-7-| 
E|-1-1-1-1-1-1-1-1-|-1-1-1-1-1-3-3-5-|-5-5-5-5-5-5-5-5-| 

G|-------------------|-----------------|-----------------| 
D|-7-9-9-10-10-9-9-7-|-3-3-3-3-3-3-3-3-|-3-3-3-3-3-5-5-7-| 
A|-7-9-9-10-10-9-9-7-|-3-3-3-3-3-3-3-3-|-3-3-3-3-3-5-5-7-| 
E|-5-7-7-8--8--7-7-5-|-1-1-1-1-1-1-1-1-|-1-1-1-1-1-3-3-5-| 

                    P.M. ------------------------------| 
G|-----------------|-----------------|-----------------| 
D|-3-3-3-3-3-3-3-3-|-2-2-2-2-2-2-2-2-|-2-2-2-2-2-2-2-2-| 
A|-3-3-3-3-3-3-3-3-|-2-2-2-2-2-2-2-2-|-2-2-2-2-2-2-2-2-| 
E|-1-1-1-1-1-1-1-1-|-0-0-0-0-0-0-0-0-|-0-0-0-0-0-0-0-0-| 

P.M. -------------| 
G|-----------------| 
D|-2-2-2-2-2-2-2-2-| 
A|-2-2-2-2-2-2-2-2-| 
E|-0-0-0-0-0-0-0-0-| 


Riff I (X 2) 
e|----------------------------------------------| 
B|------------5-----------------5----8--6-------| 
G|----5--4-5--5---------5--4-5--5---------9-----| 
D|----7--5-7--7---------7--5-7--7---------------| 
A|-0-----------------0--------------------------| 
E|-----------------0----------------------------| 


Riff II (X 2) 
G|-----------------|-----------------|-----------------| 
D|-----5---4-5-----|-----5---4-5-----|-----5---4-5-----| 
A|-----7---5-7-----|-----7---5-7-----|-----7---5-7-----| 
E|-0-0---0-----0-0-|-0-0---0-----0-0-|-0-0---0-----0-0-| 

G|-------------|-------------|-------------|-------------| 
D|-3-----------|-3-----------|-2-----------|-2-----------| 
A|-3-----------|-3-----------|-2-----------|-2-----------| 
E|-1-----------|-1-----------|-0-----------|-0-----------| 


Riff III (Coro) (X 4) 
G|-----------------|-----------------|-----------------| 
D|-3-3-3-3-3-3-3-3-|-3-3-3-3-3-3-3-3-|-7-7-7-7-9-9-9-9-| 
A|-3-3-3-3-3-3-3-3-|-3-3-3-3-3-3-3-3-|-7-7-7-7-9-9-9-9-| 
E|-1-1-1-1-1-1-1-1-|-1-1-1-1-1-1-1-1-|-5-5-5-5-7-7-7-7-| 

G|-----------------| 
D|-7-7-7-7-7-7-7-7-| 
A|-7-7-7-7-7-7-7-7-| 
E|-5-5-5-5-5-5-5-5-| 


Riff VI (X 3) 
G|-----------------|-----------------|-----------------| 
D|-3-3-3-3-3-3-3-3-|-3-3-3-3-3-5-5-7-|-7-7-7-7-7-7-7-7-| 
A|-3-3-3-3-3-3-3-3-|-3-3-3-3-3-5-5-7-|-7-7-7-7-7-7-7-7-| 
E|-1-1-1-1-1-1-1-1-|-1-1-1-1-1-3-3-5-|-5-5-5-5-5-5-5-5-| 

G|-------------------| 
D|-7-9-9-10-10-9-9-7-| 
A|-7-9-9-10-10-9-9-7-| 
E|-5-7-7-8--8--7-7-5-| 


Riff VII 
                    P.M. ------------------------------| 
G|-----------------|-----------------|-----------------| 
D|-3-3-3-3-3-3-3-3-|-2-2-2-2-2-2-2-2-|-2-2-2-2-2-2-2-2-| 
A|-3-3-3-3-3-3-3-3-|-2-2-2-2-2-2-2-2-|-2-2-2-2-2-2-2-2-| 
E|-1-1-1-1-1-1-1-1-|-0-0-0-0-0-0-0-0-|-0-0-0-0-0-0-0-0-| 

P.M. -------------| 
G|-----------------| 
D|-2-2-2-2-2-2-2-2-| 
A|-2-2-2-2-2-2-2-2-| 
E|-0-0-0-0-0-0-0-0-| 


Riff III (Coro) (X 4) 
G|-----------------|-----------------|-----------------| 
D|-3-3-3-3-3-3-3-3-|-3-3-3-3-3-3-3-3-|-7-7-7-7-9-9-9-9-| 
A|-3-3-3-3-3-3-3-3-|-3-3-3-3-3-3-3-3-|-7-7-7-7-9-9-9-9-| 
E|-1-1-1-1-1-1-1-1-|-1-1-1-1-1-1-1-1-|-5-5-5-5-7-7-7-7-| 

G|-----------------| 
D|-7-7-7-7-7-7-7-7-| 
A|-7-7-7-7-7-7-7-7-| 
E|-5-5-5-5-5-5-5-5-| 

Riff V X2 
G|-----------------|-----------------|-----------------| 
D|-3-3-3-3-3-3-3-3-|-3-3-3-3-3-3-3-3-|-7-7-7-7-7-7-7-7-| 
A|-3-3-3-3-3-3-3-3-|-3-3-3-3-3-3-3-3-|-7-7-7-7-7-7-7-7-| 
E|-1-1-1-1-1-1-1-1-|-1-1-1-1-1-1-1-1-|-5-5-5-5-5-5-5-5-| 

G|-----------------| 
D|-7-7-7-7-7-7-7-7-| 
A|-7-7-7-7-7-7-7-7-| 
E|-5-5-5-5-5-5-5-5-| 

Riff Salida 
P.M. -------------------------------------------------| 
D|-2-2-2-2-2-2-2-2-|-2-2-2-2-2-2-2-2-|-2-2-2-2-2-2-2-2-| 
A|-2-2-2-2-2-2-2-2-|-2-2-2-2-2-2-2-2-|-2-2-2-2-2-2-2-2-| 
E|-0-0-0-0-0-0-0-0-|-0-0-0-0-0-0-0-0-|-0-0-0-0-0-0-0-0-| 
		  

auto scroll beats size up size down change color hide chords drawings
tab show chords e-chords YouTube Clip e-chords hide all tabs e-chords go to top tab

share