There For Tomorrow

Addiction And Her Name

There For Tomorrow

tabs

by  DEIVCAVALCANTI

save to print version add songbook text version e-mail correct tuner
chordsukulelecavacokeyboardtabbassdrumsharmonicaflute Guitar Pro
close

there isn't a video lesson for this song

chords

Addiction And Her Name

	  		Tabbed by: Joshua Garcia ([email protected]) 

Tabs for the song: Addiction And Her Name by There For Tomorrow 
Please rate and let me know if you have any corrections. Thank you. 


Tuning: Drop C# (C# G# C# F# A# D#) 


Intro 
Guitar 1: 
D#||-------------------------------------------------------------------| 
A#||--8-8-8-8-8-8-5-5-5-5-5-5-5-5-5-5-5-5-5-5-5-5-5-5-3-3-3-3-3-3-3-3--| 
F#||--9-9-9-9-9-9-5-5-5-5-5-5-5-5-5-5-5-5-5-5-5-5-5-5-2-2-2-2-2-2-2-2--| 
C#||--7-7-7-7-7-7-3-3-3-3-3-3-3-3-3-3-3-3-3-3-3-3-3-3-0-0-0-0-0-0-0-0--| 
G#||-------------------------------------------------------------------| 
C#||-------------------------------------------------------------------| 
      . . . . . . . . . . . . . . . . . . . . . . . . . . . . . . . . 

D#||---------------------------------------------------------------| 
A#||--8-8-8-8-8-8-5-5-5-5-5-5-5-5-5-5-3-3-3-3-3-3-3-3-3-5-5-5-5-5--| 
F#||--9-9-9-9-9-9-5-5-5-5-5-5-5-5-5-5-2-2-2-2-2-2-2-2-2-5-5-5-5-5--| 
C#||--7-7-7-7-7-7-3-3-3-3-3-3-3-3-3-3-0-0-0-0-0-0-0-0-0-3-3-3-3-3--| 
G#||---------------------------------------------------------------| 
C#||---------------------------------------------------------------| 
      . . . . . . . . . . . . . . . . . . . . . . . . . . 



Pre-Verse 
Guitar 1: 
D#||--------------------------------------------------------------| 
A#||--------------------------------------------------------------| 
F#||--7-9-9-9-----7--7-7--7-7-7/12--12121212-1414-12121212121212--| 
C#||--x-x-x-x-----x--x-x--x-x-x/x---x-x-x-x--x-x--x-x-x-x-x-x-x---| x2 
G#||--5-7-7-7-----5--5-5--5-5-5/10--10101010-1212-10101010101010--| 
C#||--------------------------------------------------------------| 


Guitar 2: 
D#||--------------------------------------------------------------| 
A#||--------------------------------------------------------------| 
F#||--------------------------------------------------------------| 
C#||--7-7-7-7-----5--5-5--5-5-5--5-5-5-5-5-5-5-5-0-0-0-0-0-0-0-0--| x2 
G#||--7-7-7-7-x-x-3--3-3--3-3-3--3-3-3-3-3-3-3-3-0-0-0-0-0-0-0-0--| 
C#||--7-7-7-7-x-x-3--3-3--3-3-3--3-3-3-3-3-3-3-3-0-0-0-0-0-0-0-0--| 



Verse 
Guitar 1: 
D#||------| 
A#||--8~--| 
F#||--9~--| 
C#||--x---| 
G#||--7~--| 
C#||------| 


Guitar 2: 
D#||-------------------------------------------------------------------| 
A#||-------------------------------------------------------------------| 
F#||-------------------------------------------------------------------| 
C#||-------------------------------------------------------------------| 
G#||--7-7-7-7-7-7-3-3-3-3-3-3-3-3-3-3-3-3-3-3-3-3-3-3-0-0-0-0-0-0-0-0--| 
C#||--7-7-7-7-7-7-3-3-3-3-3-3-3-3-3-3-3-3-3-3-3-3-3-3-0-0-0-0-0-0-0-0--| 
      . . . . . . . . . . . . . . . . . . . . . . . . . . . . . . . . 

D#||-----------------------------------------------------------------| 
A#||-----------------------------------------------------------------| 
F#||-----------------------------------------------------------------| 
C#||--7-7-7-7-7-7-3-3-3-3-3-3-3-3-3-3-0-0-0-0-0-0-0-0-3-3-3-3-3-3-3--| 
G#||--7-7-7-7-7-7-3-3-3-3-3-3-3-3-3-3-0-0-0-0-0-0-0-0-3-3-3-3-3-3-3--| 
C#||--7-7-7-7-7-7-3-3-3-3-3-3-3-3-3-3-0-0-0-0-0-0-0-0-3-3-3-3-3-3-3--| 
      . . . . . . . . . . . . . . . . . . . . . . . . . . . 



Pre-Chorus 
Guitar 1/2: 
D#||--------------------| 
A#||--------5-------5~--| 
F#||--------5-------5~--| 
C#||--------------------| 
G#||----7-7---7-3-3-----| 
C#||--777-7---7-3-3-----| 
      ... .   . . . 


Guitar 1: 
D#||-------------------------------------------------| 
A#||--5--------5--------5-------5-------5-------5----| 
F#||--5--------5--------5-------5-------5-------5----| 
C#||-------------------------------------------------| 
G#||----3-3-3----3-3-3----3-3-3---3-0-0---0-0-0---0--| 
C#||----3-3-3----3-3-3----3-3-3---3-0-0---0-0-0---0--| 
        . . .    . . .    . . .   . . .   . . .   . 


Guitar 2: 
D#||-----------------------------------------------| 
A#||-----------------------------------------------| 
F#||-----------------------------------------------| 
C#||-----------------------------------------------| 
G#||--3-3-3-3-3-3-3-3-3-3-3-3-3-3-0-0-0-0-0-0-0-0--| 
C#||--3-3-3-3-3-3-3-3-3-3-3-3-3-3-0-0-0-0-0-0-0-0--| 
      . . . . . . . . . . . . . . . . . . . . . . 


Guitar 1/2: 
D#||--------------------| 
A#||--------5-------5~--| 
F#||--------5-------5~--| 
C#||--------------------| 
G#||----7-7---7-3-3-----| 
C#||--777-7---7-3-3-----| 
      ... .   . . . 


Guitar 1: 
D#||--------------------------------------------------| 
A#||--5--------5--------5-------5--------3-----3------| 
F#||--5--------5--------5-------5------2-----2-----2--| 
C#||---------------------------------0-----0-----0----| 
G#||----3-3-3----3-0-0----0-0-0---0-------------------| 
C#||----3-3-3----3-0-0----0-0-0---0-------------------| 
        . . .    . . .    . . .   . 


Guitar 2: 
D#||-----------------------------------------------| 
A#||-----------------------------------------------| 
F#||-----------------------------------------------| 
C#||-----------------------------------------------| 
G#||--3-3-3-3-3-3-0-0-0-0-0-0-0-0-3-3-3-3-3-3-3-3--| 
C#||--3-3-3-3-3-3-0-0-0-0-0-0-0-0-3-3-3-3-3-3-3-3--| 
      . . . . . . . . . . . . . . . . 



Chorus 
Guitar 1: 
D#||-------------------------------8-----8-----8------8------8------8--| 
A#||---------------------------------8-----8-----8------8------8-------| 
F#||--5/7-7-7-----9--9-9--9-9-9-9------9-----9-----10-----10-----10----| 
C#||--x/x-x-x-----x--x-x--x-x-x-x--------------------------------------| x2 
G#||--3/5-5-5-x-x-7--7-7--7-7-7-7--------------------------------------| 
C#||-------------------------------------------------------------------| 


D#||-------------------------------8-----8-----8------8------8------8--| 
A#||---------------------------------8-----8-----8------8------8-------| 
F#||--5/7-7-7-7-7-9--9-9--9-9-9-9------9-----9-----10-----10-----10----| 
C#||--x/x-x-x-x-x-x--x-x--x-x-x-x--------------------------------------| 
G#||--3/5-5-5-5-5-7--7-7--7-7-7-7--------------------------------------| 
C#||-------------------------------------------------------------------| 


D#||----------------------------------------------------------------------| 
A#||----------------------------------------------------------------------| 
F#||--5/7-7-7-----9--9-9--9-9-9-9---9-9-9-9-9-9-9-9-12-12-12-12-12-12-12--| 
C#||--x/x-x-x-----x--x-x--x-x-x-x---x-x-x-x-x-x-x-x-x--x--x--x--x--x--x---| 
G#||--3/5-5-5-x-x-7--7-7--7-7-7-7---7-7-7-7-7-7-7-7-10-10-10-10-10-10-10--| 
C#||----------------------------------------------------------------------| 


Guitar 2: 
D#||----------------------------------------------------------------| 
A#||----------------------------------------------------------------| 
F#||----------------------------------------------------------------| 
C#||--3/5-5-5-x-x-7--7-7--7-7-7-7--2-2-2-2-2-2-2-2-3-3-3-3-3-3-3-3--| x2 
G#||--3/5-5-5-x-x-7--7-7--7-7-7-7--2-2-2-2-2-2-2-2-3-3-3-3-3-3-3-3--| 
C#||--3/5-5-5-x-x-7--7-7--7-7-7-7--2-2-2-2-2-2-2-2-3-3-3-3-3-3-3-3--| 


D#||----------------------------------------------------------------| 
A#||----------------------------------------------------------------| 
F#||----------------------------------------------------------------| 
C#||--3/5-5-5-5-5-7--7-7--7-7-7-7--2-2-2-2-2-2-2-2-3-3-3-3-3-3-3-3--| 
G#||--3/5-5-5-5-5-7--7-7--7-7-7-7--2-2-2-2-2-2-2-2-3-3-3-3-3-3-3-3--| 
C#||--3/5-5-5-5-5-7--7-7--7-7-7-7--2-2-2-2-2-2-2-2-3-3-3-3-3-3-3-3--| 


D#||----------------------------------------------------------------| 
A#||----------------------------------------------------------------| 
F#||----------------------------------------------------------------| 
C#||--3/5-5-5-x-x-7--7-7--7-7-7-7--2-2-2-2-2-2-2-2-3-3-3-3-3-3-3-3--| 
G#||--3/5-5-5-x-x-7--7-7--7-7-7-7--2-2-2-2-2-2-2-2-3-3-3-3-3-3-3-3--| 
C#||--3/5-5-5-x-x-7--7-7--7-7-7-7--2-2-2-2-2-2-2-2-3-3-3-3-3-3-3-3--| 



Pre-Verse 
Guitar 1: 
D#||--------------------------------------------------| 
A#||--------------------------------------------------| 
F#||--7-9-9-9-----7--7-7--7-7-7/12--12121212-1414-12--| 
C#||--x-x-x-x-----x--x-x--x-x-x/x---x-x-x-x--x-x--x---| 
G#||--5-7-7-7-----5--5-5--5-5-5/10--10101010-1212-10--| 
C#||--------------------------------------------------| 


Guitar 2: 
D#||------------------------------------------------| 
A#||------------------------------------------------| 
F#||------------------------------------------------| 
C#||--7-7-7-7-----5--5-5--5-5-5--5-5-5-5-5-5-5-5-0--| 
G#||--7-7-7-7-x-x-3--3-3--3-3-3--3-3-3-3-3-3-3-3-0--| 
C#||--7-7-7-7-x-x-3--3-3--3-3-3--3-3-3-3-3-3-3-3-0--| 



Verse 
Guitar 1: 
D#||--------------------------------------------------| 
A#||--------------------------------------------------| 
F#||------------------------------------4--4--4--4h5--| 
C#||--7--7--7--7--7--7--7--757--7--7--75--------------| 
G#||--------------------------------------------------| 
C#||--------------------------------------------------| 


D#||----------------------------------------------------| 
A#||----------------------------------------------------| 
F#||------------------------------------4--4--4h5--4h5--| 
C#||--7--7--7--7--7--7--7--757--7--7--75----------------| 
G#||----------------------------------------------------| 
C#||----------------------------------------------------| 


Guitar 2: 
D#||-------------------------------------------------------------------| 
A#||-------------------------------------------------------------------| 
F#||-------------------------------------------------------------------| 
C#||-------------------------------------------------------------------| 
G#||--7-7-7-7-7-7-3-3-3-3-3-3-3-3-3-3-3-3-3-3-3-3-3-3-0-0-0-0-0-0-0-0--| 
C#||--7-7-7-7-7-7-3-3-3-3-3-3-3-3-3-3-3-3-3-3-3-3-3-3-0-0-0-0-0-0-0-0--| 
      . . . . . . . . . . . . . . . . . . . . . . . . . . . . . . . . 

D#||-----------------------------------------------------------------| 
A#||-----------------------------------------------------------------| 
F#||-----------------------------------------------------------------| 
C#||--7-7-7-7-7-7-3-3-3-3-3-3-3-3-3-3-0-0-0-0-0-0-0-0-3-3-3-3-3-3-3--| 
G#||--7-7-7-7-7-7-3-3-3-3-3-3-3-3-3-3-0-0-0-0-0-0-0-0-3-3-3-3-3-3-3--| 
C#||--7-7-7-7-7-7-3-3-3-3-3-3-3-3-3-3-0-0-0-0-0-0-0-0-3-3-3-3-3-3-3--| 
      . . . . . . . . . . . . . . . . . . . . . . . . . . . 



Guitar 1/2: 
D#||---------------------------------------------------------| 
A#||---------------------------------------------------------| 
F#||---------------------------------------------------------| 
C#||--1010101010-------5-5----5-5----00000-------5-5----5-5--| 
G#||--7-7-7-7-7--------3-3----3-3----00000-------5-5----5-5--| 
C#||--7-7-7-7-7--------3-3----3-3----00000-------5-5----5-5--| 


Guitar 1: 
D#||--------------------------------------------------------------------------------------| 
A#||--------------------------------------------------------------------------------------| 
F#||--9--------------9--------------------------9--------------9--------------------------| 
C#||-------9h10p9---------9h10p9----9h10-12----------9h10p9---------9h10p9----9h10-12-----| 
G#||----10--------10---10--------10---------10----10--------10---10--------10---------10--| 
C#||--------------------------------------------------------------------------------------| 


Guitar 2: 
D#||---------------------------------------------------------| 
A#||---------------------------------------------------------| 
F#||---------------------------------------------------------| 
C#||--1010101010-------5-5----5-5----00000-------5-5----5-5--| 
G#||--7-7-7-7-7--------3-3----3-3----00000-------5-5----5-5--| 
C#||--7-7-7-7-7--------3-3----3-3----00000-------5-5----5-5--| 



Pre-Chorus 
Guitar 1: 
D#||----------------|-------------------------------| 
A#||----------------|-------------------------------| 
F#||----------------|--9---9---9-9-9------12-1212\--| 
C#||--10---9--------|--10--10--101010-----10-1010\--| 
G#||-----------10~--|-------------------------------| 
C#||----------------|-------------------------------| 


Guitar 2: 
D#||-----------------------|----------------------| 
A#||-----------------------|----------------------| 
F#||-----------------------|----------------------| 
C#||--7---5---5--55--5555--|--0--0--000----3--33--| 
G#||--7---5---3--33--3333--|--0--0--000----3--33--| 
C#||--7---5---3--33--3333--|--0--0--000----3--33--| 



Chorus 
Guitar 1: 
D#||-------------------------------8-----8-----8------8------8------8--| 
A#||---------------------------------8-----8-----8------8------8-------| 
F#||--5/7-7-7-----9--9-9--9-9-9-9------9-----9-----10-----10-----10----| 
C#||--x/x-x-x-----x--x-x--x-x-x-x--------------------------------------| 
G#||--3/5-5-5-x-x-7--7-7--7-7-7-7--------------------------------------| 
C#||-------------------------------------------------------------------| 


D#||-------------------------------8-----8-----8----| 
A#||---------------------------------8-----8-----8--| 
F#||--5/7-7-7-----9--9-9--9-9-9-9------9-----9------| 
C#||--x/x-x-x-----x--x-x--x-x-x-x-------------------| 
G#||--3/5-5-5-x-x-7--7-7--7-7-7-7-------------------| 
C#||------------------------------------------------| 


Guitar 2: 
D#||----------------------------------------------------------------| 
A#||----------------------------------------------------------------| 
F#||----------------------------------------------------------------| 
C#||--3/5-5-5-x-x-7--7-7--7-7-7-7--2-2-2-2-2-2-2-2-3-3-3-3-3-3-3-3--| 
G#||--3/5-5-5-x-x-7--7-7--7-7-7-7--2-2-2-2-2-2-2-2-3-3-3-3-3-3-3-3--| 
C#||--3/5-5-5-x-x-7--7-7--7-7-7-7--2-2-2-2-2-2-2-2-3-3-3-3-3-3-3-3--| 


D#||-------------------------------------------------| 
A#||-------------------------------------------------| 
F#||-------------------------------------------------| 
C#||--3/5-5-5-x-x-7--7-7--7-7-7-7--2-2-2-2-2-2-2-2---| 
G#||--3/5-5-5-x-x-7--7-7--7-7-7-7--2-2-2-2-2-2-2-2---| 
C#||--3/5-5-5-x-x-7--7-7--7-7-7-7--2-2-2-2-2-2-2-2---| 


Guitar 1/2: 
D#||---------------------| 
A#||---------------------| 
F#||---------------------| 
C#||--------5-------5----| 
G#||----3-3-3-3-3-3-3-3--| 
C#||--333-3-3-3-3-3-3-3--| 
      ... .   . . .   . 


Guitar 1: 
D#||--8-7----------8-7----------8-7------8-7----------8-7----------8-7-------| 
A#||--------8/10-0-------8/10-0-----8/10-------8/10-0-------8/10-0-----8/10--| 
F#||------9------------9---------------------9------------9------------------| 
C#||-------------------------------------------------------------------------| 
G#||-------------------------------------------------------------------------| 
C#||-------------------------------------------------------------------------| 


Guitar 2: 
D#||-------------------------------------------------------------------| 
A#||-------------------------------------------------------------------| 
F#||-------------------------------------------------------------------| 
C#||--5-5-5-5---5-7---7-7-7--7-7-7-7--2-2-2-2-2-2-2-2-3-3-3-3-3-3-3-3--| 
G#||--5-5-5-5---5-7---7-7-7--7-7-7-7--2-2-2-2-2-2-2-2-3-3-3-3-3-3-3-3--| 
C#||--5-5-5-5---5-7---7-7-7--7-7-7-7--2-2-2-2-2-2-2-2-3-3-3-3-3-3-3-3--| 



Guitar 1: 
D#||-----------------------------------------------------------| 
A#||-----------------------------------------------------------| 
F#||--5/7-7-7-----9--9-9--9-9-9-9------------1212121212121212--| 
C#||--x/x-x-x-----x--x-x--x-x-x-x--xxxxxxxx--x-x-x-x-x-x-x-x---| 
G#||--3/5-5-5-x-x-7--7-7--7-7-7-7--77777777--1010101010101010--| 
C#||-----------------------------------------------------------| 


Guitar 2: 
D#||----------------------------------------------------------------| 
A#||----------------------------------------------------------------| 
F#||----------------------------------------------------------------| 
C#||--3/5-5-5-x-x-7--7-7--7-7-7-7--2-2-2-2-2-2-2-2-3-3-3-3-3-3-3-3--| 
G#||--3/5-5-5-x-x-7--7-7--7-7-7-7--2-2-2-2-2-2-2-2-3-3-3-3-3-3-3-3--| 
C#||--3/5-5-5-x-x-7--7-7--7-7-7-7--2-2-2-2-2-2-2-2-3-3-3-3-3-3-3-3--| 



Bridge 
Guitar 1/2: 
D#||-----------------------------------------------|-----------------------------------------------| 
A#||-----------------------------------------------|-----------------------------------------------| 
F#||-----------------------------------------------|-----------------------------------------------| 
C#||--1010101010101010-99999999-55555555-55555555--|--1010101010101010-99999999-77777777-55555555--| 
G#||--7-7-7-7-7-7-7-7--55555555-33333333-33333333--|--7-7-7-7-7-7-7-7--55555555-33333333-33333333--| 
C#||--7-7-7-7-7-7-7-7--55555555-33333333-33333333--|--7-7-7-7-7-7-7-7--55555555-33333333-33333333--| 


D#||-----------------------| 
A#||-----------------------| 
F#||-----------------------| 
C#||--7--------------7--7--| 
G#||--5--5--5--5--5--5--5--| 
C#||--5--5--5--5--5--5--5--| 
         .  .  . 


Solo 
Guitar 1: 
D#||--------------------------------------------------| 
A#||--------------------------------------------------| 
F#||-------------------------12-------12-------12-----| 
C#||--9b10r9----9---------10----10-------10-------10--| 
G#||---------10---10-/-12----------12-------12--------| 
C#||--------------------------------------------------| 


D#||-------------------------------------------0--| 
A#||----------------------------------10----------| 
F#||-------------------------12-------------------| 
C#||--9b10r9----9---------10----10-------10-------| x2 
G#||---------10---10-/-12----------12-------12----| 
C#||----------------------------------------------| 


Guitar 2: 
D#||--------------------------------------|---------------------------------------| 
A#||--------------------------------------|---------------------------------------| 
F#||--------------------------------------|---------------------------------------| 
C#||--5---5--555~---550---0---0000000000--|--5---5--555~---55-5----------5555555--| 
G#||--3---3--333~---330---0---0000000000--|--3---3--333~---33-5---------55555555--| 
C#||--3---3--333~---330---0---0000000000--|--3---3--333~---33-5-5555555555555555--| 
                                                                ........ 


Interlude 
Guitar 2: 
D#||-----------------------------| 
A#||-----------------------------| 
F#||-----------------------------| 
C#||--5-5-5-5-5-5-5-5-7-7-7-7-7--| 
G#||--5-5-5-5-5-5-5-5-7-7-7-7-7--| 
C#||--5-5-5-5-5-5-5-5-7-7-7-7-7--| 
      . . . . . . . . . . . . . 


Chorus 
Guitar 1: 
D#||--8-----8-----8------8------8------8--| 
A#||----8-----8-----8------8------8-------| 
F#||------9-----9-----10-----10-----10----| 
C#||--------------------------------------| 
G#||--------------------------------------| 
C#||--------------------------------------| 


D#||-------------------------------8-----8-----8----| 
A#||---------------------------------8-----8-----8--| 
F#||--5/7-7-7-----9--9-9--9-9-9-9------9-----9------| 
C#||--x/x-x-x-----x--x-x--x-x-x-x-------------------| 
G#||--3/5-5-5-x-x-7--7-7--7-7-7-7-------------------| 
C#||------------------------------------------------| 


Guitar 2: 
D#||-----------------------------------| 
A#||-----------------------------------| 
F#||-----------------------------------| 
C#||--2-2-2-2-2-2-2-2-3-3-3-3-3-3-3-3--| 
G#||--2-2-2-2-2-2-2-2-3-3-3-3-3-3-3-3--| 
C#||--2-2-2-2-2-2-2-2-3-3-3-3-3-3-3-3--| 


D#||-------------------------------------------------| 
A#||-------------------------------------------------| 
F#||-------------------------------------------------| 
C#||--3/5-5-5-x-x-7--7-7--7-7-7-7--2-2-2-2-2-2-2-2---| 
G#||--3/5-5-5-x-x-7--7-7--7-7-7-7--2-2-2-2-2-2-2-2---| 
C#||--3/5-5-5-x-x-7--7-7--7-7-7-7--2-2-2-2-2-2-2-2---| 



Guitar 1: 
D#||-------------| 
A#||--8~-----8~--| 
F#||--9~-----9~--| 
C#||-------------| 
G#||-------------| 
C#||-------------| 


Guitar 2: 
D#||-------------| 
A#||-------------| 
F#||-------------| 
C#||--3~-----3~--| 
G#||--3~-----3~--| 
C#||--3~-----3~--| 



Guitar 1: 
D#||--8-7----------8-7----------8-7------8-7----------8-7----------8-7-------| 
A#||--------8/10-0-------8/10-0-----8/10-------8/10-0-------8/10-0-----8/10--| 
F#||------9------------9---------------------9------------9------------------| 
C#||-------------------------------------------------------------------------| 
G#||-------------------------------------------------------------------------| 
C#||-------------------------------------------------------------------------| 


Guitar 2: 
D#||-----------------------------------------------------| 
A#||-----------------------------------------------------| 
F#||-----------------------------------------------------| 
C#||--5-5-5-5---7-7-7-7---7-7---2-2-2-2---3-3-3-3---3-3--| 
G#||--5-5-5-5---7-7-7-7---7-7---2-2-2-2---3-3-3-3---3-3--| 
C#||--5-5-5-5---7-7-7-7---7-7---2-2-2-2---3-3-3-3---3-3--| 



Guitar 1: 
D#||--8-7----------8-7----------8-7------8-7----------8-7----------8-7-------| 
A#||--------8/10-0-------8/10-0-----8/10-------8/10-0-------8/10-0-----8/10--| 
F#||------9------------9---------------------9------------9------------------| 
C#||-------------------------------------------------------------------------| 
G#||-------------------------------------------------------------------------| 
C#||-------------------------------------------------------------------------| 


Guitar 2: 
D#||-------------------------------8-----8-----8------8------8------8--| 
A#||---------------------------------8-----8-----8------8------8-------| 
F#||--5/7-7-7-7-7-9--9-9--9-9-9-9------9-----9-----10-----10-----10----| 
C#||--x/x-x-x-x-x-x--x-x--x-x-x-x--------------------------------------| 
G#||--3/5-5-5-5-5-7--7-7--7-7-7-7--------------------------------------| 
C#||-------------------------------------------------------------------| 


Guitar 3 (Dub): 
D#||----------------------------------------------------------------| 
A#||----------------------------------------------------------------| 
F#||----------------------------------------------------------------| 
C#||--5-5-5-5~--5-7--7-7--7-7-7-7--2-2-2-2-2-2-2-2-3-3-3-3-3-3-3-3--| 
G#||--5-5-5-5~--5-7--7-7--7-7-7-7--2-2-2-2-2-2-2-2-3-3-3-3-3-3-3-3--| 
C#||--5-5-5-5~--5-7--7-7--7-7-7-7--2-2-2-2-2-2-2-2-3-3-3-3-3-3-3-3--| 



Outro 
Guitar 1: 
D#||------| 
A#||--8~--| 
F#||------| 
C#||------| 
G#||------| 
C#||------| 


Guitar 2: 
D#||---------------------------------| 
A#||---------------------------------| 
F#||-----------------5--5--5-/-9~-\--| 
C#||--0~----------x--3--3--3-/-7~-\--| 
G#||--0~----------x--3--3--3-/-7~-\--| 
C#||--0~----------x--3--3--3-/-7~-\--| 




Tablature Legend 
---------------- 
 h   - hammer-on 
 p   - pull-off 
 b   - bend 
 r   - release bend 
 *   - pinch harmonic 
 '   - natural harmonic 
 x   - mute note 
 .   - palm mute 
 /   - slide down 
 \   - slide up