Them Crooked Vultures

Interludes With Ludes

Them Crooked Vultures

tabs

by  TAMAMOREIRA

save to print version add songbook text version e-mail correct tuner
chordsukulelecavacokeyboardtabbassdrumsharmonicaflute Guitar Pro
close

there isn't a video lesson for this song

chords

Interludes With Ludes

	  		

Verse (keyboard arranged for guitar): 
E|-------------------------| 
B|-------------------------| 
G|------9--9---11-12-11--9-| 
D|------x--x----x--x--x--x-| I would recommend holding a Cmaj barre chord 
A|-??----10-10---10-10-10-10-| 
E|--8----------------------| 

Chorus: 
E|--------|-------------------------------| 
B|--------|-------------------------------| 
G|-7--7-7-|-7-7-7-7-|-10-10---12-12-12-12-| 
D|-8--8-8-|-8-8-8-8-|-10-10---12-12-12-12-| 
A|-??8--8-8-|-8-8-8-8-|--8--8---10-10-10-10-| 
E|-6--6-6-|-6-6-6-6-|--8--8---10-10-10-10-| 

The other tab has a fairly good solo so use that tab for that part. 

Cheers. 
		  

Full key step upFull key step up
Half key step upHalf key step up
Half key step downHalf key step down
Full key step downFull key step down
hide glossary

See also:

tabs Drivin' N' Cryin' - Honeysuckle Blue tabs Ira! - Envelheço na Cidade tabs Deep Purple - Highway Star tabs Albert Hammond Jr - St. Justice tabs Ira! - Prisão das Ruas tabs Deep Purple - Sometimes a Feel Like Screaming
e-chords

Other versions:

tabs Them Crooked Vultures - Interludes With Ludes
auto scroll beats size up size down change color hide chords drawings
tab show chords e-chords YouTube Clip e-chords hide all tabs e-chords go to top tab

share