The Zombies

The Way I Feel Inside

The Zombies

tabs

by  FERNSANTANA

save to print version add songbook text version e-mail correct tuner
chordsukulelecavacokeyboardtabbassdrumsharmonicaflute Guitar Pro
close

there isn't a video lesson for this song

chords

The Way I Feel Inside

Year: 1999 - Album: Absolutely the Best

	  		 
 

Intro 
   G 
e|-------0-------| 
B|---------3-----| 
G|-----4-----4---| 
D|---5---------5-|x4 
A|---------------| 
E|-3-------------| 


verse 1  
    G     Em        Am 
e|-----|-------|---------------| 
B|-----|-------|-------1-------| 
G|---4-|-----0-|------2--2--2--| 
D|--5--|----2--|----2-----2---2| x2  
A|-----|-------|--0------------| 
E|-3---|-0-----|---------------| 
   
     B                     C 
e|---------------|-----------------| 
B|-------4-------|---------5-------| 
G|-----4---4---4-|-------5---5---5-| 
D|---4-------4--4|-----5-------5--5| 
A|-2-------------|---3-------------| 
E|---------------|-----------------| 

    G      Em        Am 
e|-----|--------|-----------------| 
B|-----|--------|--------1--------| 
G|---4-|-----0--|-------2--2--2---| 
D|--5--|----2---|-----2-----2---2-| x2  
A|-----|--------|---0-------------| 
E|-3---|-0------|-----------------| 
   
   B                C                    Cm               G                    B 
e|---------------|-----------------|----------------|------------------|------------------| 
B|-------4-------|---------5-------|--------4-------|---------5--------|---------4--------| 
G|-----4---4---4-|-------5---5---5-|------5---5---5-|-------4---4---4--|-------4---4---4--| 
D|---4-------4--4|-----5-------5--5|----5-------5--5|-----5-------5---5|-----4-------4---4| 
A|-2-------------|---3-------------|--3-------------|------------------|---2--------------| 
E|---------------|-----------------|----------------|--3---------------|------------------| 


        C                 Cm                G             F#      F 
e|----------------|------------------|-----------------|-------|---------| 
B|-------5--------|---------4--------|--------3--------|-------|---------| 
G|-----5---5---5--|-------5---5---5--|------4---4---4--|-----3-|------2--| 
D|---5-------5--5-|-----5-------5--5-|----5-------5--4-|---4---|----3----| 
A|-3--------------|---3--------------|-----------------|-------|---------| 
E|----------------|------------------|--3--------------|-2-----|--1------| 

Intro 
   G 
e|-------0-------| 
B|---------3-----| 
G|-----4-----4---| 
D|---5---------5-|x4 
A|---------------| 
E|-3-------------| 

verse 2 

 G      Em        Am 
e|-----|--------|-----------------| 
B|-----|--------|--------1--------| 
G|---4-|-----0--|-------2--2--2---| 
D|--5--|----2---|-----2-----2---2-| x2  
A|-----|--------|---0-------------| 
E|-3---|-0------|-----------------| 
   
   B                C                    Cm               G                    B 
e|---------------|-----------------|----------------|------------------|------------------| 
B|-------4-------|---------5-------|--------4-------|---------5--------|---------4--------| 
G|-----4---4---4-|-------5---5---5-|------5---5---5-|-------4---4---4--|-------4---4---4--| 
D|---4-------4--4|-----5-------5--5|----5-------5--5|-----5-------5---5|-----4-------4---4| 
A|-2-------------|---3-------------|--3-------------|------------------|---2--------------| 
E|---------------|-----------------|----------------|--3---------------|------------------| 

        C                 Cm                G             F#      F 
e|----------------|------------------|-----------------|-------|---------| 
B|-------5--------|---------4--------|--------3--------|-------|---------| 
G|-----5---5---5--|-------5---5---5--|------4---4---4--|-----3-|------2--| 
D|---5-------5--5-|-----5-------5--5-|----5-------5--4-|---4---|----3----| 
A|-3--------------|---3--------------|-----------------|-------|---------| 
E|----------------|------------------|--3--------------|-2-----|--1------| 

Intro 
   G 
e|-------0-------| 
B|---------3-----| 
G|-----4-----4---| 
D|---5---------5-|x4 
A|---------------| 
E|-3-------------| 

Coda  
    G     Em        Am 
e|-----|-------|---------------| 
B|-----|-------|-------1-------| 
G|---4-|-----0-|------2--2--2--| 
D|--5--|----2--|----2-----2---2| x2  
A|-----|-------|--0------------| 
E|-3---|-0-----|---------------| 

       G            C       Cm 
e|-------------|--------|---------| 
B|-----0-------|-----5--|-----4---| 
G|----0--0--0--|---5----|---5-----| 
D|--0-----0--0-|--------|---------| 
A|-------------|-3------|-3-------| 
E|-3-----------|--------|---------| 

       G            C       Cm 
e|------0------|--------|---------| 
B|--------3----|---5----|---4-----| 
G|----4----4---|----5---|----5----| 
D|--5--------5-|-----5--|-----5---|x3 
A|-------------|-3------|-3-------| 
E|-3-----------|--------|---------| 

        G 
e|------0--------| 
B|------3--------| 
G|------4--------| 
D|------5--------| 
A|------5--------| 
E|------3--------| 
		  

Full key step upFull key step up
Half key step upHalf key step up
Half key step downHalf key step down
Full key step downFull key step down
hide glossary

See also:

tabs Pink Floyd - Another Brick In The Wall - Part II tabs Led Zeppelin - Stairway to Heaven tabs The Who - Pinball Wizard tabs Sex Pistols - Anarchy In The UK tabs Sex Pistols - God Save The Queen tabs Pink Floyd - Brain Damage (easy tab)
e-chords

Other versions:

tabs The Zombies - The Way I Feel Inside
auto scroll beats size up size down change color hide chords drawings
tab show chords e-chords YouTube Clip e-chords hide all tabs e-chords go to top tab

share