The Yardbirds

Over Under Sideways Down

The Yardbirds

tabs

by  PETE_TOWNSHEND

save to print version add songbook text version e-mail correct tuner
chordsukulelecavacokeyboardtabbassdrumsharmonicaflute Guitar Pro
close

there isn't a video lesson for this song

chords

Over Under Sideways Down

	  		Intro: 
 
	(fuzz guitar w/handclaps): 
 
	 v       v       v       v         v       v       v       v 
	---------------------------------|--------------------------------- 
	---------------------------------|--------------------------------- 
	12------12h14p12s10------10h12s14|12-------12--14-b15*-----14------ 
	---------------------------------|--------------------------------- 
	---------------------------------|--------------------------------- 
	---------------------------------|--------------------------------- 
	Hey!                                                 * 3/4-tone bend 
 
	(repeat above, w/bass): 
 
	(G) 
	 v       v       v       v         v       v       v       v 
	-------------------------9-------|-10------9----------------------- 
	---------9-------12--------------|-----------------12------9------- 
	-10------------------------------|--------------------------------- 
	---------------------------------|--------------------------------- 
 
	(drums enter) 
 
	 v       v       v       v         v       v       v       v 
	---------------------------------|--------------------------------- 
	12------12h13p12s10------10h12-13|12-------12--13-b15------13------ 
	---------------------------------|--------------------------------- 
	---------------------------------|--------------------------------- 
	---------------------------------|--------------------------------- 
	---------------------------------|--------------------------------- 
	Hey! 
 
	 v       v       v       v         v       v       v       v 
	---------------------------------|--------------------------------- 
	12------12h13p12s10------10h12-13|12------------------------------- 
	---------------------------------|--------------------------------- 
	---------------------------------|--------------------------------- 
	---------------------------------|--------------------------------- 
	---------------------------------|--------------------------------- 
	Hey! 
 
Verse 1: 
 
	 G 
	Cars and girls are ... 
	Chorus: 
 
	        G 
	(Hey!) Over, under, ... 
	(Hey!)  
	(Hey!) Backwards, forwards, .... 
 
	 Cm          Gm 
	When will ... 
	            (when will it end) 
	 Cm          Gm 
	When will ... 
	            (when will it end) 
 
{repeat intro} 
 
Verse 2: 
 
	I find comments ... 
	{repeat Chorus} 
 
{repeat intro} 
 
Coda {repeat to fade}: 
 
	        G 
	(Hey!) Over, under, ... 
	(Hey!) Backwards, ... 

		  

Full key step upFull key step up
Half key step upHalf key step up
Half key step downHalf key step down
Full key step downFull key step down
hide glossary

See also:

tabs Guns N' Roses - Sweet Child o' mine tabs The Offspring - Come Out and Play tabs Guns N' Roses - Live and Let Die tabs Guns N' Roses - November Rain tabs Foo Fighters - Times Like These tabs Simon & Garfunkel - Sounds of silence
e-chords

Other versions:

tabs The Yardbirds - Over Under Sideways Down tabs The Yardbirds - Over, Under, Sideways, Down (ver. 2)
auto scroll beats size up size down change color hide chords drawings
tab show chords e-chords YouTube Clip e-chords hide all tabs e-chords go to top tab

share