The Word Alive

Play The Victim

The Word Alive

tabs

by  ANG-LETRA

save to print version add songbook text version e-mail correct tuner
chordsukulelecavacokeyboardtabbassdrumsharmonicaflute Guitar Pro
close

there isn't a video lesson for this song

chords

Play The Victim

	  		
Guitar 1 

(Fade In) 

      PM   PM PM PM PM   PM PM   PM PM   PM PM     
      S  S S  S  S  S  S S  S  S S  S  S S  S  S   
C#||---------------------------------------------| 
G#||---------------------------------------------| 
E ||---------------------------------------------| 
B ||--0----0--0--0--0----0--0----0--0----0--0----| 
F#||--0----0--0--0--0----0--0----0--0----0--0----| 
B ||--0----0--0--0--0----0--0----0--0----0--0----| 


      PM PM PM PM   PM PM   PM PM   PM PM     
  S S S  S  S  S  S S  S  S S  S  S S  S  S   
--------------------------------------------| 
--------------------------------------------| 
--------------------------------------------| 
------0--0--0--0----0--0----0--0----0--0----| 
------0--0--0--0----0--0----0--0----0--0----| 
------0--0--0--0----0--0----0--0----0--0----| 


  PM   PM PM PM PM   PM PM   PM PM   PM PM     
  S  S S  S  S  S  S S  S  S S  S  S S  S  S   
---------------------------------------------| 
---------------------------------------------| 
---------------------------------------------| 
--0----0--0--0--0----0--0----0--0----0--0----| 
--0----0--0--0--0----0--0----0--0----0--0----| 
--0----0--0--0--0----0--0----0--0----0--0----| 


      PM PM PM PM   PM PM   PM PM   PM PM     
  S S S  S  S  S  S S  S  S S  S  S S  S  S   
--------------------------------------------| 
--------------------------------------------| 
--------------------------------------------| 
------0--0--0--0----0--0----0--0----0--0----| 
------0--0--0--0----0--0----0--0----0--0----| 
------0--0--0--0----0--0----0--0----0--0----| 


  PM   PM PM PM PM   PM PM   PM PM   PM PM     
  S  S S  S  S  S  S S  S  S S  S  S S  S  S   
---------------------------------------------| 
---------------------------------------------| 
---------------------------------------------| 
--0----0--0--0--0----0--0----0--0----0--0----| 
--0----0--0--0--0----0--0----0--0----0--0----| 
--0----0--0--0--0----0--0----0--0----0--0----| 


      PM PM PM PM   PM PM   PM PM   PM PM     
  S S S  S  S  S  S S  S  S S  S  S S  S  S   
--------------------------------------------| 
--------------------------------------------| 
--------------------------------------------| 
------0--0--0--0----0--0----0--0----0--0----| 
------0--0--0--0----0--0----0--0----0--0----| 
------0--0--0--0----0--0----0--0----0--0----| 


  PM   PM PM PM PM   PM PM   PM PM   PM PM     
  S  S S  S  S  S  S S  S  S S  S  S S  S  S   
---------------------------------------------| 
---------------------------------------------| 
---------------------------------------------| 
--0----0--0--0--0----0--0----0--0----0--0----| 
--0----0--0--0--0----0--0----0--0----0--0----| 
--0----0--0--0--0----0--0----0--0----0--0----| 


      PM PM PM PM   PM PM   PM PM   PM PM     
  S S S  S  S  S  S S  S  S S  S  S S  S  S   
--------------------------------------------| 
--------------------------------------------| 
--------------------------------------------| 
------0--0--0--0----0--0----0--0----0--0----| 
------0--0--0--0----0--0----0--0----0--0----| 
------0--0--0--0----0--0----0--0----0--0----| 


  PM   PM PM PM PM   PM PM   PM PM   PM PM     
  S  S S  S  S  S  S S  S  S S  S  S S  S  S   
---------------------------------------------| 
---------------------------------------------| 
---------------------------------------------| 
--0----0--0--0--0----0--0----0--0----0--0----| 
--0----0--0--0--0----0--0----0--0----0--0----| 
--0----0--0--0--0----0--0----0--0----0--0----| 


      PM PM PM PM   PM PM   PM PM   PM PM     
  S S S  S  S  S  S S  S  S S  S  S S  S  S   
--------------------------------------------| 
--------------------------------------------| 
--------------------------------------------| 
------0--0--0--0----0--0----0--0----0--0----| 
------0--0--0--0----0--0----0--0----0--0----| 
------0--0--0--0----0--0----0--0----0--0----| 


  PM   PM PM PM PM   PM PM   PM PM   PM PM     
  S  S S  S  S  S  S S  S  S S  S  S S  S  S   
---------------------------------------------| 
---------------------------------------------| 
---------------------------------------------| 
--0----0--0--0--0----0--0----0--0----0--0----| 
--0----0--0--0--0----0--0----0--0----0--0----| 
--0----0--0--0--0----0--0----0--0----0--0----| 


      PM PM PM PM   PM PM   PM PM   PM PM                         
  S S S  S  S  S  S S  S  S S  S  S S  S  S                       
--------------------------------------------|----|----|----|----| 
--------------------------------------------|----|----|----|----| 
--------------------------------------------|----|----|----|----| 
------0--0--0--0----0--0----0--0----0--0----|----|----|----|----| 
------0--0--0--0----0--0----0--0----0--0----|----|----|----|----| 
------0--0--0--0----0--0----0--0----0--0----|----|----|----|----| 

(Clean) 

   W                   W                    W                  
--------------------|-------------------|--------------------| 
--15----------------|--L----------------|---L----------------| 
--------------------|-------------------|--------------------| 
--12----------------|--L----------------|--10----------------| 
--------------------|-------------------|--------------------| 
--------------------|-------------------|--------------------| 


   Q.      E   H            W                   W                  
------------------------|--------------------|-------------------| 
---L-------L---L--------|--15----------------|--L----------------| 
----------14------------|--------------------|-------------------| 
------------------------|--12----------------|--L----------------| 
--13----------12--------|--------------------|-------------------| 
------------------------|--------------------|-------------------| 


   W                    Q.      Q      E   E   E      W                  
--------------------|----------17b----17----------|--------------------| 
---L----------------|---L-----------------18--15--|--15----------------| 
--------------------|-----------------------------|--------------------| 
--10----------------|-----------------------------|--12----------------| 
--------------------|--13-------------------------|--------------------| 
--------------------|-----------------------------|--------------------| 


  W                    W                    Q.      E   E   E   E   E    
-------------------|--------------------|----------17--17--17--17--17--| 
--L----------------|---L----------------|--15--------------------------| 
-------------------|--------------------|--14------14--14--14--14--14--| 
--L----------------|--10----------------|--12------12--12--12--12--12--| 
-------------------|--------------------|------------------------------| 
-------------------|--------------------|------------------------------| 

(Distortion) 

  E  S S S E  S E  S E  S E     E  S S S E  S E  S E  S E    
-----------------------------|-----------------------------| 
-----------------------------|-----------------------------| 
--3--3-3-3-3--3-3--3-3--3-3--|--L--3-3-3-3--3-3--3-3--3-3--| 
--3--3-3-3-3--3-3--3-3--3-3--|--L--3-3-3-3--3-3--3-3--3-3--| 
--1--1-1-1-1--1-1--1-1--1-1--|--L--1-1-1-1--1-1--1-1--1-1--| 
-----------------------------|-----------------------------| 


  E  S S S E  S E  S E  S E     E  S S S E  S E  S E  S E    
-----------------------------|-----------------------------| 
-----------------------------|-----------------------------| 
-----------------------------|-----------------------------| 
--5--5-5-5-5--5-5--5-5--5-5--|--L--5-5-5-5--5-5--5-5--5-5--| 
--5--5-5-5-5--5-5--5-5--5-5--|--L--5-5-5-5--5-5--5-5--5-5--| 
--5--5-5-5-5--5-5--5-5--5-5--|--L--5-5-5-5--5-5--5-5--5-5--| 


     PM PM PM PM   PM PM   PM PM   PM PM     
  E  S  S  S  S  S S  S  S S  S  S S  S  S   
-------------------------------------------| 
-------------------------------------------| 
-------------------------------------------| 
-----0--0--0--0----0--0----0--0----0--0----| 
--5--0--0--0--0----0--0----0--0----0--0----| 
-----0--0--0--0----0--0----0--0----0--0----| 


      PM PM PM PM   PM PM   PM PM   PM PM     
  S S S  S  S  S  S S  S  S S  S  S S  S  S   
--------------------------------------------| 
--------------------------------------------| 
--------------------------------------------| 
------0--0--0--0----0--0----0--0----0--0----| 
------0--0--0--0----0--0----0--0----0--0----| 
------0--0--0--0----0--0----0--0----0--0----| 


     PM PM PM PM   PM PM   PM PM   PM PM     
  E  S  S  S  S  S S  S  S S  S  S S  S  S   
-------------------------------------------| 
-------------------------------------------| 
-------------------------------------------| 
-----0--0--0--0----0--0----0--0----0--0----| 
--5--0--0--0--0----0--0----0--0----0--0----| 
-----0--0--0--0----0--0----0--0----0--0----| 


      PM PM PM PM   PM PM   PM PM   PM PM                                   
  S S S  S  S  S  S S  S  S S  S  S S  S  S    E  S S S E  S E  S E  S E    
--------------------------------------------|-----------------------------| 
--------------------------------------------|-----------------------------| 
--------------------------------------------|--3--3-3-3-3--3-3--3-3--3-3--| 
------0--0--0--0----0--0----0--0----0--0----|--3--3-3-3-3--3-3--3-3--3-3--| 
------0--0--0--0----0--0----0--0----0--0----|--1--1-1-1-1--1-1--1-1--1-1--| 
------0--0--0--0----0--0----0--0----0--0----|-----------------------------| 


  E  S S S E  S E  S E  S E     E  S S S E  S E  S E  S E    
-----------------------------|-----------------------------| 
-----------------------------|-----------------------------| 
--L--3-3-3-3--3-3--3-3--3-3--|-----------------------------| 
--L--3-3-3-3--3-3--3-3--3-3--|--5--5-5-5-5--5-5--5-5--5-5--| 
--L--1-1-1-1--1-1--1-1--1-1--|--5--5-5-5-5--5-5--5-5--5-5--| 
-----------------------------|--5--5-5-5-5--5-5--5-5--5-5--| 


                                   PM PM PM PM   PM PM   PM PM   PM PM     
  E  S S S E  S E  S E  S E     E  S  S  S  S  S S  S  S S  S  S S  S  S   
-----------------------------|-------------------------------------------| 
-----------------------------|-------------------------------------------| 
-----------------------------|-------------------------------------------| 
--L--5-5-5-5--5-5--5-5--5-5--|-----0--0--0--0----0--0----0--0----0--0----| 
--L--5-5-5-5--5-5--5-5--5-5--|--5--0--0--0--0----0--0----0--0----0--0----| 
--L--5-5-5-5--5-5--5-5--5-5--|-----0--0--0--0----0--0----0--0----0--0----| 


      PM PM PM PM   PM PM   PM PM   PM PM     
  S S S  S  S  S  S S  S  S S  S  S S  S  S   
--------------------------------------------| 
--------------------------------------------| 
--------------------------------------------| 
------0--0--0--0----0--0----0--0----0--0----| 
------0--0--0--0----0--0----0--0----0--0----| 
------0--0--0--0----0--0----0--0----0--0----| 


     PM PM PM PM   PM PM   PM PM   PM PM     
  E  S  S  S  S  S S  S  S S  S  S S  S  S   
-------------------------------------------| 
-------------------------------------------| 
-------------------------------------------| 
-----0--0--0--0----0--0----0--0----0--0----| 
--5--0--0--0--0----0--0----0--0----0--0----| 
-----0--0--0--0----0--0----0--0----0--0----| 


      PM PM PM PM   PM PM   PM PM   PM PM     
  S S S  S  S  S  S S  S  S S  S  S S  S  S   
--------------------------------------------| 
--------------------------------------------| 
--------------------------------------------| 
------0--0--0--0----0--0----0--0----0--0----| 
------0--0--0--0----0--0----0--0----0--0----| 
------0--0--0--0----0--0----0--0----0--0----| 


   S  S  S  S  S  S  S  S  S  S  S  S  S  S  S  S   
--------------------------------------------------| 
--10-10-10-10-10-10-10-10-10-10-10-10-10-10-10-10-| 
---7--7--7--7--7--7--7--7--7--7--7--7--7--7--7--7-| 
--------------------------------------------------| 
--------------------------------------------------| 
--------------------------------------------------| 


   S  S  S  S  S  S  S  S  S  S  S  S  S  S S S   
------------------------------------------------| 
--10-10-10-10-10-10-10-10-10-10-10-10-10-10-8-8-| 
---7--7--7--7--7--7--7--7--7--7--7--7--7--7-7-7-| 
------------------------------------------------| 
------------------------------------------------| 
------------------------------------------------| 


   S  S  S  S  S  S  S  S  S  S  S  S  S  S  S  S   
--------------------------------------------------| 
--11-11-11-11-11-11-11-11-11-11-11-11-11-11-11-11-| 
---7--7--7--7--7--7--7--7--7--7--7--7--7--7--7--7-| 
--------------------------------------------------| 
--------------------------------------------------| 
--------------------------------------------------| 


   S  S  S  S  S  S  S  S  S  S  S  S  S  S  S  S   
--------------------------------------------------| 
--11-11-11-11-11-11-11-11-11-11-11-11-11-11-11-11-| 
---7--7--7--7--7--7--7--7--7--7--7--7--7--7--7--7-| 
--------------------------------------------------| 
--------------------------------------------------| 
--------------------------------------------------| 


   S  S  S  S  S  S  S  S  S  S  S  S  S  S  S  S   
--------------------------------------------------| 
--10-10-10-10-10-10-10-10-10-10-10-10-10-10-10-10-| 
---7--7--7--7--7--7--7--7--7--7--7--7--7--7--7--7-| 
--------------------------------------------------| 
--------------------------------------------------| 
--------------------------------------------------| 


   S  S  S  S  S  S  S  S  S  S  S  S  S  S S S   
------------------------------------------------| 
--10-10-10-10-10-10-10-10-10-10-10-10-10-10-8-8-| 
---7--7--7--7--7--7--7--7--7--7--7--7--7--7-7-7-| 
------------------------------------------------| 
------------------------------------------------| 
------------------------------------------------| 


   S  S  S  S  S  S  S  S  S  S  S  S  S  S  S  S   
--------------------------------------------------| 
--11-11-11-11-11-11-11-11-11-11-11-11-11-11-11-11-| 
---7--7--7--7--7--7--7--7--7--7--7--7--7--7--7--7-| 
--------------------------------------------------| 
--------------------------------------------------| 
--------------------------------------------------| 


   S  S  S  S  S  S  S  S  S  S  S  S  S  S  S  S   
--------------------------------------------------| 
--11-11-11-11-11-11-11-11-11-11-11-11-11-11-11-11-| 
---7--7--7--7--7--7--7--7--7--7--7--7--7--7--7--7-| 
--------------------------------------------------| 
--------------------------------------------------| 
--------------------------------------------------| 


   S  S  S  S  S  S  S  S  S  S  S  S  S  S  S  S   
--------------------------------------------------| 
--10-10-10-10-10-10-10-10-10-10-10-10-10-10-10-10-| 
---7--7--7--7--7--7--7--7--7--7--7--7--7--7--7--7-| 
--------------------------------------------------| 
--------------------------------------------------| 
--------------------------------------------------| 


   S  S  S  S  S  S  S  S  S  S  S  S  S  S S S   
------------------------------------------------| 
--10-10-10-10-10-10-10-10-10-10-10-10-10-10-8-8-| 
---7--7--7--7--7--7--7--7--7--7--7--7--7--7-7-7-| 
------------------------------------------------| 
------------------------------------------------| 
------------------------------------------------| 


   S  S  S  S  S  S  S  S  S  S  S  S  S  S  S  S   
--------------------------------------------------| 
--11-11-11-11-11-11-11-11-11-11-11-11-11-11-11-11-| 
---7--7--7--7--7--7--7--7--7--7--7--7--7--7--7--7-| 
--------------------------------------------------| 
--------------------------------------------------| 
--------------------------------------------------| 


   S  S  S  S  S  S  S  S  S  S  S  S  S  S  S  S   
--------------------------------------------------| 
--11-11-11-11-11-11-11-11-11-11-11-11-11-11-11-11-| 
---7--7--7--7--7--7--7--7--7--7--7--7--7--7--7--7-| 
--------------------------------------------------| 
--------------------------------------------------| 
--------------------------------------------------| 


            PM PM                    PM PM                 PM PM   
  E   E  E  S  S  E  E  E   E     E  S  S  E  E  E   E  E  S  S    
-------------------------------|---------------------------------| 
-------------------------------|---------------------------------| 
-------------------------------|---------------------------------| 
-------------------------------|---------------------------------| 
-------------------------------|---------------------------------| 
--1b--0-----1--1--0-----1b--0--|-----1--1--0-----1b--0-----1--1--| 


            PM PM                    PM PM                 PM PM   
  E   E  E  S  S  E  E  E   E     E  S  S  E  E  E   E  E  S  S    
-------------------------------|---------------------------------| 
-------------------------------|---------------------------------| 
-------------------------------|---------------------------------| 
-------------------------------|---------------------------------| 
-------------------------------|---------------------------------| 
--1b--0-----1--1--0-----1b--0--|-----1--1--0-----1b--0-----1--1--| 


            PM PM                    PM PM                 PM PM   
  E   E  E  S  S  E  E  E   E     E  S  S  E  E  E   E  E  S  S    
-------------------------------|---------------------------------| 
-------------------------------|---------------------------------| 
-------------------------------|---------------------------------| 
-------------------------------|---------------------------------| 
-------------------------------|---------------------------------| 
--1b--0-----1--1--0-----1b--0--|-----1--1--0-----1b--0-----1--1--| 


            PM PM                    PM PM                     
  E   E  E  S  S  E  E  E   E     E  S  S  E  E  E  E  E  E    
-------------------------------|-----------------------------| 
-------------------------------|-----------------------------| 
-------------------------------|-----------------------------| 
-------------------------------|-----------------------------| 
-------------------------------|-----------------------------| 
--1b--0-----1--1--0-----1b--0--|-----1--1--0-----------------| 


  E  S S S E  S E  S E  S E     E  S S S E  S E  S E  S E    
-----------------------------|-----------------------------| 
-----------------------------|-----------------------------| 
--3--3-3-3-3--3-3--3-3--3-3--|--L--3-3-3-3--3-3--3-3--3-3--| 
--3--3-3-3-3--3-3--3-3--3-3--|--L--3-3-3-3--3-3--3-3--3-3--| 
--1--1-1-1-1--1-1--1-1--1-1--|--L--1-1-1-1--1-1--1-1--1-1--| 
-----------------------------|-----------------------------| 


  E  S S S E  S E  S E  S E     E  S S S E  S E  S E  S E    
-----------------------------|-----------------------------| 
-----------------------------|-----------------------------| 
-----------------------------|-----------------------------| 
--5--5-5-5-5--5-5--5-5--5-5--|--L--5-5-5-5--5-5--5-5--5-5--| 
--5--5-5-5-5--5-5--5-5--5-5--|--L--5-5-5-5--5-5--5-5--5-5--| 
--5--5-5-5-5--5-5--5-5--5-5--|--L--5-5-5-5--5-5--5-5--5-5--| 


     PM PM PM PM   PM PM   PM PM   PM PM     
  E  S  S  S  S  S S  S  S S  S  S S  S  S   
-------------------------------------------| 
-------------------------------------------| 
-------------------------------------------| 
-----0--0--0--0----0--0----0--0----0--0----| 
--5--0--0--0--0----0--0----0--0----0--0----| 
-----0--0--0--0----0--0----0--0----0--0----| 


      PM PM PM PM   PM PM   PM PM   PM PM     
  S S S  S  S  S  S S  S  S S  S  S S  S  S   
--------------------------------------------| 
--------------------------------------------| 
--------------------------------------------| 
------0--0--0--0----0--0----0--0----0--0----| 
------0--0--0--0----0--0----0--0----0--0----| 
------0--0--0--0----0--0----0--0----0--0----| 


     PM PM PM PM   PM PM   PM PM   PM PM     
  E  S  S  S  S  S S  S  S S  S  S S  S  S   
-------------------------------------------| 
-------------------------------------------| 
-------------------------------------------| 
-----0--0--0--0----0--0----0--0----0--0----| 
--5--0--0--0--0----0--0----0--0----0--0----| 
-----0--0--0--0----0--0----0--0----0--0----| 


      PM PM PM PM   PM PM   PM PM   PM PM                                   
  S S S  S  S  S  S S  S  S S  S  S S  S  S    E  S S S E  S E  S E  S E    
--------------------------------------------|-----------------------------| 
--------------------------------------------|-----------------------------| 
--------------------------------------------|--3--3-3-3-3--3-3--3-3--3-3--| 
------0--0--0--0----0--0----0--0----0--0----|--3--3-3-3-3--3-3--3-3--3-3--| 
------0--0--0--0----0--0----0--0----0--0----|--1--1-1-1-1--1-1--1-1--1-1--| 
------0--0--0--0----0--0----0--0----0--0----|-----------------------------| 


  E  S S S E  S E  S E  S E     E  S S S E  S E  S E  S E    
-----------------------------|-----------------------------| 
-----------------------------|-----------------------------| 
--L--3-3-3-3--3-3--3-3--3-3--|-----------------------------| 
--L--3-3-3-3--3-3--3-3--3-3--|--5--5-5-5-5--5-5--5-5--5-5--| 
--L--1-1-1-1--1-1--1-1--1-1--|--5--5-5-5-5--5-5--5-5--5-5--| 
-----------------------------|--5--5-5-5-5--5-5--5-5--5-5--| 


                                     PM PM      PM PM        
  E  S S S E  S E  S E  S E     Q    S  S  Q    S  S  Q      
-----------------------------|--1----------1----------0----| 
-----------------------------|--3----------3----------1----| 
-----------------------------|--2----------2----------2----| 
--L--5-5-5-5--5-5--5-5--5-5--|--0----------0----------0----| 
--L--5-5-5-5--5-5--5-5--5-5--|--0----0--0--0----0--0--0----| 
--L--5-5-5-5--5-5--5-5--5-5--|--0----0--0--0----0--0--0----| 


                              PM PM      PM PM                            
  H        Q    E  E     Q    S  S  Q    S  S  Q       W                  
--L--------L----L-----|-----------------------------|-------------------| 
--L--------L----L-----|-------------6----------3----|--L----------------| 
--L--------L----L-----|-------------x----------3----|--L----------------| 
--L--------L----L--7--|--8----------5----------0----|--L----------------| 
--L--------L----L--5--|--5----5--5--5----5--5--1----|--L----------------| 
--L--------L----L--5--|--5----5--5--5----5--5-------|-------------------| 


       PM PM      PM PM                               
  Q    S  S  Q    S  S  Q       H        Q    E  E    
--1----------1----------0----|--L--------L----L-----| 
--3----------3----------1----|--L--------L----L-----| 
--2----------2----------2----|--L--------L----L-----| 
--0----------0----------0----|--L--------L----L--7--| 
--0----0--0--0----0--0--0----|--L--------L----L--5--| 
--0----0--0--0----0--0--0----|--L--------L----L--5--| 

                                                 (Clean) 

       PM PM      PM PM                                                    
  Q    S  S  Q    S  S  Q       W                   Q    Q    E  Q    E    
-----------------------------|-------------------|-----------------------| 
-------------6----------3----|--L----------------|-----------------------| 
-------------x----------3----|--L----------------|-----------------------| 
--8----------5----------0----|--L----------------|-------0----L--0----L--| 
--5----5--5--5----5--5--1----|--L----------------|-----------------------| 
--5----5--5--5----5--5-------|-------------------|--0----L----0--L----0--| 


  Q    Q    Q    Q       E  E  E  E  Q    Q       E  Q.     E  E  E  E    
----------------------|------------------------|------------------------| 
----------------------|------------------------|------------------------| 
----------------------|------------------------|------------------------| 
--0----L--------------|-----------0--L----0----|--L--0------L-----------| 
----------------------|------------------------|------------------------| 
--L----0----0----0----|--0--5--8--L--0----L----|--0---------0-----------| 


  E  E  E  E  Q    Q       Q    Q    E  E  E  E     E  E  E  E  Q    Q      
------------------------|------------------------|------------------------| 
------------------------|------------------------|------------------------| 
------------------------|------------------------|------------------------| 
-----------0--L----0----|--L----0----L--------0--|-----------0--L----0----| 
------------------------|---------------3--5--L--|------------------------| 
--0--5--8--L--0----L----|--0----L----0-----------|--0--5--8--L--0----L----| 


  E  Q    E  E  E  E  E     E  E  E  E  Q    Q       Q    Q    E  E  E  E    
-------------------------|------------------------|------------------------| 
-------------------------|------------------------|------------------------| 
-------------------------|------------------------|------------------------| 
--L--0----------------0--|-----------0--L----0----|--L----0----L--------0--| 
-------------------------|------------------------|---------------3--5--L--| 
--0--L----0--0--2--3--L--|--0--5--8--L--0----L----|--0----L----0-----------| 


  E  E  E  E  Q    Q       E  Q    E  E  E  E  E     E  E  E  E  Q    Q      
------------------------|-------------------------|------------------------| 
------------------------|-------------------------|------------------------| 
------------------------|-------------------------|------------------------| 
-----------0--L----0----|--L--0----------------0--|-----------0--L----0----| 
------------------------|-------------------------|------------------------| 
--0--5--8--L--0----L----|--0--L----0--0--2--3--L--|--0--5--8--L--0----L----| 


  Q    Q    E  E  E  E     E  E  E  E  Q    Q       E  Q    E  E  E  E  E    
------------------------|------------------------|-------------------------| 
------------------------|------------------------|-------------------------| 
------------------------|------------------------|-------------------------| 
--L----0----L--------0--|-----------0--L----0----|--L--0----------------0--| 
---------------3--5--L--|------------------------|-------------------------| 
--0----L----0-----------|--0--5--8--L--0----L----|--0--L----0--0--2--3--L--| 


  E  E  E  E  Q    Q       Q    Q    E  E  E  E     E  E  E  E  Q    Q      
------------------------|------------------------|------------------------| 
------------------------|------------------------|------------------------| 
------------------------|------------------------|------------------------| 
-----------0--L----0----|--L----0----L--------0--|-----------0--L----0----| 
------------------------|---------------3--5--L--|------------------------| 
--0--5--8--L--0----L----|--0----L----0-----------|--0--5--8--L--0----L----| 

                                (Distortion) 

  E  Q    E  E  E  E  E           E  Q     H        E    
-------------------------|-----|----------13--------L--| 
-------------------------|-----|----------13--------L--| 
-------------------------|-----|----------14--------L--| 
--L--0----------------0--|-----|--0--0----15--------L--| 
-------------------------|-----|--0--0-----------------| 
--0--L----0--0--2--3--L--|-----|--0--0-----L--------L--| 


  E  Q    E   Q    E  E     Q    E   H        E     E  Q    E   Q    E  E    
--L----------13----L-----|----------13--------L--|--L----------13----L-----| 
--L----------13----L-----|----------13--------L--|--L----------13----L-----| 
--L----------14----L-----|----------14--------L--|--L----------14----L-----| 
--L--0----L--15----L--0--|--0----L--15--------L--|--L--0----L--15----L--0--| 
-----0----L-----------0--|--0----L---------------|-----0----L-----------0--| 
--L--0----L---L----L--0--|--0----L---L--------L--|--L--0----L---L----L--0--| 


  Q    E   H        E     E  Q    E   Q    E  E     Q    E   H        E    
----------13--------L--|--L----------13----L-----|----------13--------L--| 
----------13--------L--|--L----------13----L-----|----------13--------L--| 
----------14--------L--|--L----------14----L-----|----------14--------L--| 
--0----L--15--------L--|--L--0----L--15----L--0--|--0----L--15--------L--| 
--0----L---------------|-----0----L-----------0--|--0----L---------------| 
--0----L---L--------L--|--L--0----L---L----L--0--|--0----L---L--------L--| 


  E  Q    E   Q    E  E     Q    E  Q    E  Q       H        Q    E  E    
--L----------13----L--L--|--1----L--1----L--0----|--L--------L----L-----| 
--L----------13----L--L--|--3----L--3----L--1----|--L--------L----L-----| 
--L----------14----L--L--|--2----L--2----L--2----|--L--------L----L-----| 
--L--0----L--15----L--L--|--0----L--0----L--0----|--L--------L----L--7--| 
-----0----L--------------|--0----L--0----L--0----|--L--------L----L--5--| 
--L--0----L---L----L--L--|--0----L--0----L--0----|--L--------L----L--5--| 


                          PM  PM  PM PM  PM  PM               
  Q    E  Q    E  Q       E.  E.  E  E.  E.  E                
-----------------------|------------------------|-----|-----| 
----------6----L--3----|--3---3---3--3---3---3--|-----|-----| 
----------x-------3----|--3---3---3--3---3---3--|-----|-----| 
--8----L--5----L--0----|--0---0---0--0---0---0--|-----|-----| 
--5----L--5----L--1----|--1---1---1--1---1---1--|-----|-----| 
--5----L--5----L-------|------------------------|-----|-----| 


  E  S S S E  S E  S E  S E     E  S S S E  S E  S E  S E    
-----------------------------|-----------------------------| 
-----------------------------|-----------------------------| 
-----------------------------|-----------------------------| 
--5--5-5-5-5--5-5--5-5--5-5--|--L--5-5-5-5--5-5--5-5--5-5--| 
--5--5-5-5-5--5-5--5-5--5-5--|--L--5-5-5-5--5-5--5-5--5-5--| 
--5--5-5-5-5--5-5--5-5--5-5--|--L--5-5-5-5--5-5--5-5--5-5--| 


     PM PM PM PM   PM PM   PM PM   PM PM     
  E  S  S  S  S  S S  S  S S  S  S S  S  S   
-------------------------------------------| 
-------------------------------------------| 
-------------------------------------------| 
-----0--0--0--0----0--0----0--0----0--0----| 
--5--0--0--0--0----0--0----0--0----0--0----| 
-----0--0--0--0----0--0----0--0----0--0----| 


      PM PM PM PM   PM PM   PM PM   PM PM     
  S S S  S  S  S  S S  S  S S  S  S S  S  S   
--------------------------------------------| 
--------------------------------------------| 
--------------------------------------------| 
------0--0--0--0----0--0----0--0----0--0----| 
------0--0--0--0----0--0----0--0----0--0----| 
------0--0--0--0----0--0----0--0----0--0----| 


     PM PM PM PM   PM PM   PM PM   PM PM     
  E  S  S  S  S  S S  S  S S  S  S S  S  S   
-------------------------------------------| 
-------------------------------------------| 
-------------------------------------------| 
-----0--0--0--0----0--0----0--0----0--0----| 
--5--0--0--0--0----0--0----0--0----0--0----| 
-----0--0--0--0----0--0----0--0----0--0----| 


      PM PM PM PM   PM PM   PM PM   PM PM                                   
  S S S  S  S  S  S S  S  S S  S  S S  S  S    E  S S S E  S E  S E  S E    
--------------------------------------------|-----------------------------| 
--------------------------------------------|-----------------------------| 
--------------------------------------------|--3--3-3-3-3--3-3--3-3--3-3--| 
------0--0--0--0----0--0----0--0----0--0----|--3--3-3-3-3--3-3--3-3--3-3--| 
------0--0--0--0----0--0----0--0----0--0----|--1--1-1-1-1--1-1--1-1--1-1--| 
------0--0--0--0----0--0----0--0----0--0----|-----------------------------| 


  E  S S S E  S E  S E  S E     E  S S S E  S E  S E  S E    
-----------------------------|-----------------------------| 
-----------------------------|-----------------------------| 
--L--3-3-3-3--3-3--3-3--3-3--|-----------------------------| 
--L--3-3-3-3--3-3--3-3--3-3--|--5--5-5-5-5--5-5--5-5--5-5--| 
--L--1-1-1-1--1-1--1-1--1-1--|--5--5-5-5-5--5-5--5-5--5-5--| 
-----------------------------|--5--5-5-5-5--5-5--5-5--5-5--| 


                                   PM PM PM PM   PM PM   PM PM   PM PM     
  E  S S S E  S E  S E  S E     E  S  S  S  S  S S  S  S S  S  S S  S  S   
-----------------------------|-------------------------------------------| 
-----------------------------|-------------------------------------------| 
-----------------------------|-------------------------------------------| 
--L--5-5-5-5--5-5--5-5--5-5--|-----0--0--0--0----0--0----0--0----0--0----| 
--L--5-5-5-5--5-5--5-5--5-5--|--5--0--0--0--0----0--0----0--0----0--0----| 
--L--5-5-5-5--5-5--5-5--5-5--|-----0--0--0--0----0--0----0--0----0--0----| 


      PM PM PM PM   PM PM   PM PM   PM PM     
  S S S  S  S  S  S S  S  S S  S  S S  S  S   
--------------------------------------------| 
--------------------------------------------| 
--------------------------------------------| 
------0--0--0--0----0--0----0--0----0--0----| 
------0--0--0--0----0--0----0--0----0--0----| 
------0--0--0--0----0--0----0--0----0--0----| 


     PM PM PM PM   PM PM   PM PM   PM PM     
  E  S  S  S  S  S S  S  S S  S  S S  S  S   
-------------------------------------------| 
-------------------------------------------| 
-------------------------------------------| 
-----0--0--0--0----0--0----0--0----0--0----| 
--5--0--0--0--0----0--0----0--0----0--0----| 
-----0--0--0--0----0--0----0--0----0--0----| 


      PM PM PM PM   PM PM   PM PM   PM PM                                        
  S S S  S  S  S  S S  S  S S  S  S S  S  S    S S S S S S S S S S S S S S S S   
--------------------------------------------|----------------------------------| 
--------------------------------------------|----------------------------------| 
--------------------------------------------|--3-3-3-3-3-3-3-3-3-3-3-3-3-3-3-3-| 
------0--0--0--0----0--0----0--0----0--0----|--3-3-3-3-3-3-3-3-3-3-3-3-3-3-3-3-| 
------0--0--0--0----0--0----0--0----0--0----|--1-1-1-1-1-1-1-1-1-1-1-1-1-1-1-1-| 
------0--0--0--0----0--0----0--0----0--0----|----------------------------------| 


  S S S S S S S S S S S S S S S S    S S S S S S S S S S S S S S S S   
----------------------------------|----------------------------------| 
----------------------------------|----------------------------------| 
----------------------------------|--3-3-3-3-3-3-3-3-3-3-3-3-3-3-3-3-| 
--5-5-5-5-5-5-5-5-5-5-5-5-5-5-5-5-|--3-3-3-3-3-3-3-3-3-3-3-3-3-3-3-3-| 
--5-5-5-5-5-5-5-5-5-5-5-5-5-5-5-5-|--1-1-1-1-1-1-1-1-1-1-1-1-1-1-1-1-| 
--5-5-5-5-5-5-5-5-5-5-5-5-5-5-5-5-|----------------------------------| 


  S S S S S S S S S S S S S S S S    S S S S S S S S S S S S S S S S   
----------------------------------|----------------------------------| 
----------------------------------|----------------------------------| 
----------------------------------|--3-3-3-3-3-3-3-3-3-3-3-3-3-3-3-3-| 
--5-5-5-5-5-5-5-5-5-5-5-5-5-5-5-5-|--3-3-3-3-3-3-3-3-3-3-3-3-3-3-3-3-| 
--5-5-5-5-5-5-5-5-5-5-5-5-5-5-5-5-|--1-1-1-1-1-1-1-1-1-1-1-1-1-1-1-1-| 
--5-5-5-5-5-5-5-5-5-5-5-5-5-5-5-5-|----------------------------------| 


  S S S S S S S S S S S S S S S S    S S S S S S S S S S S S S S S S   
----------------------------------|----------------------------------| 
----------------------------------|----------------------------------| 
----------------------------------|--3-3-3-3-3-3-3-3-3-3-3-3-3-3-3-3-| 
--5-5-5-5-5-5-5-5-5-5-5-5-5-5-5-5-|--3-3-3-3-3-3-3-3-3-3-3-3-3-3-3-3-| 
--5-5-5-5-5-5-5-5-5-5-5-5-5-5-5-5-|--1-1-1-1-1-1-1-1-1-1-1-1-1-1-1-1-| 
--5-5-5-5-5-5-5-5-5-5-5-5-5-5-5-5-|----------------------------------| 


                                                         PM PM   PM PM     
  S S S S S S S S S S S S S S S S    S S S S S S S S S S S  S  S S  S  S   
----------------------------------|--------------------------------------| 
----------------------------------|--------------------------------------| 
----------------------------------|--------------------------------------| 
--5-5-5-5-5-5-5-5-5-5-5-5-5-5-5-5-|----------------------0--0----0--0----| 
--5-5-5-5-5-5-5-5-5-5-5-5-5-5-5-5-|----------------------0--0----0--0----| 
--5-5-5-5-5-5-5-5-5-5-5-5-5-5-5-5-|----------------------0--0----0--0----| 


      PM PM PM PM   PM PM   PM PM   PM PM     
  S S S  S  S  S  S S  S  S S  S  S S  S  S   
--------------------------------------------| 
--------------------------------------------| 
--------------------------------------------| 
------0--0--0--0----0--0----0--0----0--0----| 
------0--0--0--0----0--0----0--0----0--0----| 
------0--0--0--0----0--0----0--0----0--0----| 


  PM   PM PM PM PM   PM PM   PM PM   PM PM     
  S  S S  S  S  S  S S  S  S S  S  S S  S  S   
---------------------------------------------| 
---------------------------------------------| 
---------------------------------------------| 
--0----0--0--0--0----0--0----0--0----0--0----| 
--0----0--0--0--0----0--0----0--0----0--0----| 
--0----0--0--0--0----0--0----0--0----0--0----| 

                                            (Piano) 

      PM PM PM PM   PM PM   PM PM   PM PM                            
  S S S  S  S  S  S S  S  S S  S  S S  S  S    Q    Q    Q    Q      
--------------------------------------------|----------------------| 
--------------------------------------------|----------------------| 
--------------------------------------------|--7---------7---------| 
------0--0--0--0----0--0----0--0----0--0----|----------------------| 
------0--0--0--0----0--0----0--0----0--0----|-------5---------5----| 
------0--0--0--0----0--0----0--0----0--0----|----------------------| 


  Q    Q    Q    Q       Q    Q    Q    Q       Q    Q    Q    Q      
----------------------|----------------------|----------------------| 
----------------------|----------------------|----------------------| 
--7---------7---------|--7---------7---------|--7---------7---------| 
----------------------|----------------------|----------------------| 
-------5---------5----|-------5---------5----|-------5---------5----| 
----------------------|----------------------|----------------------| 


  Q    Q    Q    Q       Q    Q    Q    Q       Q    Q    Q    Q      
----------------------|----------------------|----------------------| 
----------------------|----------------------|----------------------| 
----------------------|----------------------|----------------------| 
--8---------8---------|--8---------8---------|--7---------7---------| 
-------5---------5----|-------5---------5----|-------5---------5----| 
----------------------|----------------------|----------------------| 


  Q    Q    Q    Q       W                   W                  
----------------------|-------------------|-------------------| 
----------------------|-------------------|-------------------| 
----------------------|-------------------|-------------------| 
--5---------5---------|-------------------|-------------------| 
-------5---------5----|-------------------|-------------------| 
----------------------|--3----------------|--L----------------| 


  W                                       
-------------------|-------------------|| 
-------------------|-------------------|| 
-------------------|-------------------|| 
-------------------|-------------------|| 
-------------------|-------------------|| 
--L----------------|-------------------|| 


Guitar 2 


                       T      T    T      T      T      T     
                       S S S  S S  S S S  S S S  S S S  S S   
C#||-------|-------|----------------------------10----------| 
G#||-------|-------|--------------10-------------------10---| 
E ||-------|-------|-----7-9-10-7----7-9-10-7-9----7-9----7-| 
B ||-------|-------|--10------------------------------------| 
F#||-------|-------|----------------------------------------| 
B ||-------|-------|----------------------------------------| 


   T      T    T                         T      T    T      T      T      T     
   S S S  S S  S S S S S S S S S S S     S S S  S S  S S S  S S S  S S S  S S   
-------------------------------------|----------------------------10----------| 
--------------10---------------------|--------------10-------------------10---| 
-----7-9-10-7----7-9-9---------------|-----7-9-10-7----7-9-10-7-9----7-9----7-| 
--10---------------------------------|--10------------------------------------| 
-------------------------------------|----------------------------------------| 
-------------------------------------|----------------------------------------| 


   T      T    T      T      T      T     
   S S S  S S  S S S  S S S  S S S  S S   
----------------------------10----------| 
--------------10-------------------10---| 
-----7-9-10-7----7-9-10-7-9----7-9----7-| 
--10------------------------------------| 
----------------------------------------| 
----------------------------------------| 


   T      T    T      T      T      T     
   S S S  S S  S S S  S S S  S S S  S S   
----------------------------10----------| 
--------------10-------------------10---| 
-----7-9-10-7----7-9-10-7-9----7-9----7-| 
--10------------------------------------| 
----------------------------------------| 
----------------------------------------| 


   T      T    T      T      T      T     
   S S S  S S  S S S  S S S  S S S  S S   
----------------------------10----------| 
--------------10-------------------10---| 
-----7-9-10-7----7-9-10-7-9----7-9----7-| 
--10------------------------------------| 
----------------------------------------| 
----------------------------------------| 


   T      T    T      T      T      T     
   S S S  S S  S S S  S S S  S S S  S S   
----------------------------10----------| 
--------------10-------------------10---| 
-----7-9-10-7----7-9-10-7-9----7-9----7-| 
--10------------------------------------| 
----------------------------------------| 
----------------------------------------| 


   T      T    T      T      T      T     
   S S S  S S  S S S  S S S  S S S  S S   
----------------------------10----------| 
--------------10-------------------10---| 
-----7-9-10-7----7-9-10-7-9----7-9----7-| 
--10------------------------------------| 
----------------------------------------| 
----------------------------------------| 


   T      T    T      T      T      T     
   S S S  S S  S S S  S S S  S S S  S S   
----------------------------10----------| 
--------------10-------------------10---| 
-----7-9-10-7----7-9-10-7-9----7-9----7-| 
--10------------------------------------| 
----------------------------------------| 
----------------------------------------| 


   T      T    T      T      T     T                          
   S S S  S S  S S S  S S S  S S S S  S    W                  
----------------------------10----------|-------------------| 
--------------10------------------------|-------------------| 
-----7-9-10-7----7-9-10-7-9----7-9-9-10-|--9----------------| 
--10------------------------------------|-------------------| 
----------------------------------------|-------------------| 
----------------------------------------|-------------------| 


  W                   W                   W                                      
-------------------|-------------------|-------------------|-------------------| 
-------------------|-------------------|-------------------|-------------------| 
--L----------------|--L----------------|-------------------|-------------------| 
-------------------|-------------------|-------------------|-------------------| 
-------------------|-------------------|-------------------|-------------------| 
-------------------|-------------------|-------------------|-------------------| 


-------------------|-------------------|-------------------| 
-------------------|-------------------|-------------------| 
-------------------|-------------------|-------------------| 
-------------------|-------------------|-------------------| 
-------------------|-------------------|-------------------| 
-------------------|-------------------|-------------------| 


  E  S S E  E  E   E  E  E     H         H           W                  
----------------------------|---------------------|-------------------| 
------------6--8--10--8--6--|---------------------|-------------------| 
-----5-7-9------------------|--9------------------|-------------------| 
----------------------------|-----------10--------|--7----------------| 
----------------------------|---------------------|-------------------| 
----------------------------|---------------------|-------------------| 


   W                   E  S S E  E  E   E  E  E     H         H          
--------------------|----------------------------|---------------------| 
--------------------|------------6--8--10--8--6--|---------------------| 
--------------------|-----5-7-9------------------|--9------------------| 
--10----------------|----------------------------|-----------10--------| 
--------------------|----------------------------|---------------------| 
--------------------|----------------------------|---------------------| 


  H        Q    Q                           
----------------------|-------------------| 
----------------------|-------------------| 
----------------------|-------------------| 
--7--------L----L\----|-------------------| 
----------------------|-------------------| 
----------------------|-------------------| 


   T      T    T      T      T      T     
   S S S  S S  S S S  S S S  S S S  S S   
----------------------------10----------| 
--------------10-------------------10---| 
-----7-9-10-7----7-9-10-7-9----7-9----7-| 
--10------------------------------------| 
----------------------------------------| 
----------------------------------------| 


   T      T    T      T      T      T     
   S S S  S S  S S S  S S S  S S S  S S   
----------------------------10----------| 
--------------10-------------------10---| 
-----7-9-10-7----7-9-10-7-9----7-9----7-| 
--10------------------------------------| 
----------------------------------------| 
----------------------------------------| 


   T      T    T      T      T      T     
   S S S  S S  S S S  S S S  S S S  S S   
----------------------------10----------| 
--------------10-------------------10---| 
-----7-9-10-7----7-9-10-7-9----7-9----7-| 
--10------------------------------------| 
----------------------------------------| 
----------------------------------------| 


   T      T    T      T      T      T     
   S S S  S S  S S S  S S S  S S S  S S   
----------------------------10----------| 
--------------10-------------------10---| 
-----7-9-10-7----7-9-10-7-9----7-9----7-| 
--10------------------------------------| 
----------------------------------------| 
----------------------------------------| 


   T        T     T        T        T        T      
   S  S  S  S  S  S  S  S  S  S  S  S  S  S  S  S   
-----------------------------------17-------------| 
-----------------17-------------------------17----| 
-----12-14-17-12----12-14-17-12-14----12-14----12-| 
--15----------------------------------------------| 
--------------------------------------------------| 
--------------------------------------------------| 


   T        T     T        T        T        T      
   S  S  S  S  S  S  S  S  S  S  S  S  S  S  S  S   
-----------------------------------17-------------| 
-----------------17-------------------------17----| 
-----12-14-17-12----12-14-17-12-14----12-14----12-| 
--15----------------------------------------------| 
--------------------------------------------------| 
--------------------------------------------------| 


   T        T     T        T        T        T      
   S  S  S  S  S  S  S  S  S  S  S  S  S  S  S  S   
-----------------------------------17-------------| 
-----------------17-------------------------17----| 
-----12-14-17-12----12-14-17-12-14----12-14----12-| 
--15----------------------------------------------| 
--------------------------------------------------| 
--------------------------------------------------| 


   T        T     T        T        T        T      
   S  S  S  S  S  S  S  S  S  S  S  S  S  S  S  S   
-----------------------------------17-------------| 
-----------------17-------------------------17----| 
-----12-14-17-12----12-14-17-12-14----12-14----12-| 
--15----------------------------------------------| 
--------------------------------------------------| 
--------------------------------------------------| 


   T      T    T      T      T      T     
   S S S  S S  S S S  S S S  S S S  S S   
----------------------------10----------| 
--------------10-------------------10---| 
-----7-9-10-7----7-9-10-7-9----7-9----7-| 
--10------------------------------------| 
----------------------------------------| 
----------------------------------------| 


   T      T    T      T      T      T     
   S S S  S S  S S S  S S S  S S S  S S   
----------------------------10----------| 
--------------10-------------------10---| 
-----7-9-10-7----7-9-10-7-9----7-9----7-| 
--10------------------------------------| 
----------------------------------------| 
----------------------------------------| 


   T      T    T      T      T      T     
   S S S  S S  S S S  S S S  S S S  S S   
----------------------------10----------| 
--------------10-------------------10---| 
-----7-9-10-7----7-9-10-7-9----7-9----7-| 
--10------------------------------------| 
----------------------------------------| 
----------------------------------------| 


   T      T    T      T      T      T     
   S S S  S S  S S S  S S S  S S S  S S   
----------------------------10----------| 
--------------10-------------------10---| 
-----7-9-10-7----7-9-10-7-9----7-9----7-| 
--10------------------------------------| 
----------------------------------------| 
----------------------------------------| 


   T        T     T        T        T        T      
   S  S  S  S  S  S  S  S  S  S  S  S  S  S  S  S   
-----------------------------------17-------------| 
-----------------17-------------------------17----| 
-----12-14-17-12----12-14-17-12-14----12-14----12-| 
--15----------------------------------------------| 
--------------------------------------------------| 
--------------------------------------------------| 


   T        T     T        T        T        T      
   S  S  S  S  S  S  S  S  S  S  S  S  S  S  S  S   
-----------------------------------17-------------| 
-----------------17-------------------------17----| 
-----12-14-17-12----12-14-17-12-14----12-14----12-| 
--15----------------------------------------------| 
--------------------------------------------------| 
--------------------------------------------------| 


   T        T     T        T        T        T      
   S  S  S  S  S  S  S  S  S  S  S  S  S  S  S  S   
-----------------------------------17-------------| 
-----------------17-------------------------17----| 
-----12-14-17-12----12-14-17-12-14----12-14----12-| 
--15----------------------------------------------| 
--------------------------------------------------| 
--------------------------------------------------| 


   T        T     T        T        T        T      
   S  S  S  S  S  S  S  S  S  S  S  S  S  S  S  S   
-----------------------------------17-------------| 
-----------------17-------------------------17----| 
-----12-14-17-12----12-14-17-12-14----12-14----12-| 
--15----------------------------------------------| 
--------------------------------------------------| 
--------------------------------------------------| 


      PM PM PM    PM     PM     PM           PM PM PM                        
   E  S  S  S  E  S   E  S   E  S   E     E  S  S  S  E  S S S S S S S S S   
---------------------------------------|-----------------------------------| 
---------------------------------------|-----------------------------------| 
---------------------------------------|-----------------------------------| 
---------------------------------------|-----------------------------------| 
---------------------------------------|-------------------------3-3-------| 
--10--0--0--0--0--0--10--0--10--0--12--|--L--0--0--0--0--L-0-3-5-----5-3-0-| 


      PM PM PM    PM     PM     PM           PM PM PM                        
   E  S  S  S  E  S   E  S   E  S   E     E  S  S  S  E  S S S S S S S S S   
---------------------------------------|-----------------------------------| 
---------------------------------------|-----------------------------------| 
---------------------------------------|-----------------------------------| 
---------------------------------------|-----------------------------------| 
---------------------------------------|-------------------------3-3-------| 
--10--0--0--0--0--0--10--0--10--0--12--|--L--0--0--0--0--L-0-3-5-----5-3-0-| 


      PM PM PM    PM     PM     PM           PM PM PM                        
   E  S  S  S  E  S   E  S   E  S   E     E  S  S  S  E  S S S S S S S S S   
---------------------------------------|-----------------------------------| 
---------------------------------------|-----------------------------------| 
---------------------------------------|-----------------------------------| 
---------------------------------------|-----------------------------------| 
---------------------------------------|-------------------------3-3-------| 
--10--0--0--0--0--0--10--0--10--0--12--|--L--0--0--0--0--L-0-3-5-----5-3-0-| 


      PM PM PM    PM     PM     PM           PM PM PM                        
   E  S  S  S  E  S   E  S   E  S   E     E  S  S  S  E  S S S S S S S S S   
---------------------------------------|-----------------------------------| 
---------------------------------------|-----------------------------------| 
---------------------------------------|-----------------------------------| 
---------------------------------------|-----------------------------------| 
---------------------------------------|-------------------------3-3-------| 
--10--0--0--0--0--0--10--0--10--0--12--|--L--0--0--0--0--L-0-3-5-----5-3-0-| 


      PM PM PM    PM     PM     PM           PM PM PM                        
   E  S  S  S  E  S   E  S   E  S   E     E  S  S  S  E  S S S S S S S S S   
---------------------------------------|-----------------------------------| 
---------------------------------------|-----------------------------------| 
---------------------------------------|-----------------------------------| 
---------------------------------------|-----------------------------------| 
---------------------------------------|-------------------------3-3-------| 
--10--0--0--0--0--0--10--0--10--0--12--|--L--0--0--0--0--L-0-3-5-----5-3-0-| 


      PM PM PM    PM     PM     PM           PM PM PM                        
   E  S  S  S  E  S   E  S   E  S   E     E  S  S  S  E  S S S S S S S S S   
---------------------------------------|-----------------------------------| 
---------------------------------------|-----------------------------------| 
---------------------------------------|-----------------------------------| 
---------------------------------------|-----------------------------------| 
---------------------------------------|-------------------------3-3-------| 
--10--0--0--0--0--0--10--0--10--0--12--|--L--0--0--0--0--L-0-3-5-----5-3-0-| 


            PM PM                    PM PM                 PM PM   
  E   E  E  S  S  E  E  E   E     E  S  S  E  E  E   E  E  S  S    
-------------------------------|---------------------------------| 
-------------------------------|---------------------------------| 
-------------------------------|---------------------------------| 
-------------------------------|---------------------------------| 
-------------------------------|---------------------------------| 
--1b--0-----1--1--0-----1b--0--|-----1--1--0-----1b--0-----1--1--| 


            PM PM                    PM PM                 PM PM   
  E   E  E  S  S  E  E  E   E     E  S  S  E  E  E   E  E  S  S    
-------------------------------|---------------------------------| 
-------------------------------|---------------------------------| 
-------------------------------|---------------------------------| 
-------------------------------|---------------------------------| 
-------------------------------|---------------------------------| 
--1b--0-----1--1--0-----1b--0--|-----1--1--0-----1b--0-----1--1--| 


            PM PM                    PM PM                 PM PM   
  E   E  E  S  S  E  E  E   E     E  S  S  E  E  E   E  E  S  S    
-------------------------------|---------------------------------| 
-------------------------------|---------------------------------| 
-------------------------------|---------------------------------| 
-------------------------------|---------------------------------| 
-------------------------------|---------------------------------| 
--1b--0-----1--1--0-----1b--0--|-----1--1--0-----1b--0-----1--1--| 


            PM PM                    PM PM                     
  E   E  E  S  S  E  E  E   E     E  S  S  E  E  E  E  E  E    
-------------------------------|-----------------------------| 
-------------------------------|-----------------------------| 
-------------------------------|-----------------------------| 
-------------------------------|-----------------------------| 
-------------------------------|-----------------------------| 
--1b--0-----1--1--0-----1b--0--|-----1--1--0-----------------| 


   T      T    T      T      T      T     
   S S S  S S  S S S  S S S  S S S  S S   
----------------------------10----------| 
--------------10-------------------10---| 
-----7-9-10-7----7-9-10-7-9----7-9----7-| 
--10------------------------------------| 
----------------------------------------| 
----------------------------------------| 


   T      T    T      T      T      T     
   S S S  S S  S S S  S S S  S S S  S S   
----------------------------10----------| 
--------------10-------------------10---| 
-----7-9-10-7----7-9-10-7-9----7-9----7-| 
--10------------------------------------| 
----------------------------------------| 
----------------------------------------| 


   T      T    T      T      T      T     
   S S S  S S  S S S  S S S  S S S  S S   
----------------------------10----------| 
--------------10-------------------10---| 
-----7-9-10-7----7-9-10-7-9----7-9----7-| 
--10------------------------------------| 
----------------------------------------| 
----------------------------------------| 


   T      T    T      T      T      T     
   S S S  S S  S S S  S S S  S S S  S S   
----------------------------10----------| 
--------------10-------------------10---| 
-----7-9-10-7----7-9-10-7-9----7-9----7-| 
--10------------------------------------| 
----------------------------------------| 
----------------------------------------| 


   T        T     T        T        T        T      
   S  S  S  S  S  S  S  S  S  S  S  S  S  S  S  S   
-----------------------------------17-------------| 
-----------------17-------------------------17----| 
-----12-14-17-12----12-14-17-12-14----12-14----12-| 
--15----------------------------------------------| 
--------------------------------------------------| 
--------------------------------------------------| 


   T        T     T        T        T        T      
   S  S  S  S  S  S  S  S  S  S  S  S  S  S  S  S   
-----------------------------------17-------------| 
-----------------17-------------------------17----| 
-----12-14-17-12----12-14-17-12-14----12-14----12-| 
--15----------------------------------------------| 
--------------------------------------------------| 
--------------------------------------------------| 


   T        T     T        T        T        T      
   S  S  S  S  S  S  S  S  S  S  S  S  S  S  S  S   
-----------------------------------17-------------| 
-----------------17-------------------------17----| 
-----12-14-17-12----12-14-17-12-14----12-14----12-| 
--15----------------------------------------------| 
--------------------------------------------------| 
--------------------------------------------------| 


   T        T     T        T        T        T      
   S  S  S  S  S  S  S  S  S  S  S  S  S  S  S  S   
-----------------------------------17-------------| 
-----------------17-------------------------17----| 
-----12-14-17-12----12-14-17-12-14----12-14----12-| 
--15----------------------------------------------| 
--------------------------------------------------| 
--------------------------------------------------| 


   T      T    T      T      T      T     
   S S S  S S  S S S  S S S  S S S  S S   
----------------------------10----------| 
--------------10-------------------10---| 
-----7-9-10-7----7-9-10-7-9----7-9----7-| 
--10------------------------------------| 
----------------------------------------| 
----------------------------------------| 


   T      T    T      T      T      T     
   S S S  S S  S S S  S S S  S S S  S S   
----------------------------10----------| 
--------------10-------------------10---| 
-----7-9-10-7----7-9-10-7-9----7-9----7-| 
--10------------------------------------| 
----------------------------------------| 
----------------------------------------| 


   T      T    T      T      T      T     
   S S S  S S  S S S  S S S  S S S  S S   
----------------------------10----------| 
--------------10-------------------10---| 
-----7-9-10-7----7-9-10-7-9----7-9----7-| 
--10------------------------------------| 
----------------------------------------| 
----------------------------------------| 


   T      T    T      T      T      T           PM PM        PM PM       
   S S S  S S  S S S  S S S  S S S  S S    Q    S  S   Q     S  S Q      
----------------------------10----------|------------------------------| 
--------------10-------------------10---|------------------------------| 
-----7-9-10-7----7-9-10-7-9----7-9----7-|--7----7--7--10----10-10-9----| 
--10------------------------------------|------------------------------| 
----------------------------------------|------------------------------| 
----------------------------------------|------------------------------| 


                           PM PM      PM PM                            
  W                   Q    S  S  Q    S  S  Q       W                  
-------------------|-----------------------------|-------------------| 
-------------------|-----------------------------|-------------------| 
--L----------------|-------------5----5--5--7----|--L----------------| 
-------------------|--7----7--7------------------|-------------------| 
-------------------|-----------------------------|-------------------| 
-------------------|-----------------------------|-------------------| 


         PM PM       PM PM                           
   Q     S  S  Q     S  S Q       W                  
-------------------------------|-------------------| 
--10----10-10------------------|-------------------| 
--------------10----10-10-9----|--L----------------| 
-------------------------------|-------------------| 
-------------------------------|-------------------| 
-------------------------------|-------------------| 


       PM PM      PM PM                                                    
  Q    S  S  Q    S  S  Q       H        Q    E   E     W                  
-----------------------------|-----------------------|-------------------| 
-----------------------------|-----------------------|-------------------| 
-------------5----5--5--7----|--L--------L----L\-----|-------------------| 
--7----7--7------------------|--------------------5--|--7----------------| 
-----------------------------|-----------------------|-------------------| 
-----------------------------|-----------------------|-------------------| 


  W                   W                                                          
-------------------|-------------------|-------------------|-------------------| 
-------------------|-------------------|-------------------|-------------------| 
-------------------|-------------------|-------------------|-------------------| 
--L----------------|--L----------------|-------------------|-------------------| 
-------------------|-------------------|-------------------|-------------------| 
-------------------|-------------------|-------------------|-------------------| 


(02:52) 


   E   E   E   E   E   E  E  E     E  Q     H        E    
--------------------------------|----------13--------L--| 
--10--10--10--10--10--10--------|----------13--------L--| 
---7---7---7---7---7---7--------|----------14--------L--| 
--------------------------------|--0--0----15--------L--| 
--------------------------------|--0--0-----------------| 
--------------------------------|--0--0-----L--------L--| 


  E  Q    E   Q    E  E     Q    E   H        E     E  Q    E   Q    E  E    
--L----------13----L-----|----------13--------L--|--L----------13----L-----| 
--L----------13----L-----|----------13--------L--|--L----------13----L-----| 
--L----------14----L-----|----------14--------L--|--L----------14----L-----| 
--L--0----L--15----L--0--|--0----L--15--------L--|--L--0----L--15----L--0--| 
-----0----L-----------0--|--0----L---------------|-----0----L-----------0--| 
--L--0----L---L----L--0--|--0----L---L--------L--|--L--0----L---L----L--0--| 


  Q    E   H        E     E  Q    E   Q    E  E     Q    E   H        E    
----------13--------L--|--L----------13----L-----|----------13--------L--| 
----------13--------L--|--L----------13----L-----|----------13--------L--| 
----------14--------L--|--L----------14----L-----|----------14--------L--| 
--0----L--15--------L--|--L--0----L--15----L--0--|--0----L--15--------L--| 
--0----L---------------|-----0----L-----------0--|--0----L---------------| 
--0----L---L--------L--|--L--0----L---L----L--0--|--0----L---L--------L--| 


  E  Q    E   Q    E  E      Q    E   Q     E  Q       W                  
--L----------13----L--L--|--------------------------|-------------------| 
--L----------13----L--L--|--10----L-----------------|-------------------| 
--L----------14----L--L--|-----------10-----L--9----|--L----------------| 
--L--0----L--15----L--L--|--------------------------|-------------------| 
-----0----L--------------|--------------------------|-------------------| 
--L--0----L---L----L--L--|--------------------------|-------------------| 


   Q    E   Q    E   Q       W                  
--------------------------|-------------------| 
--10----L--13----L--15----|--L----------------| 
--------------------------|-------------------| 
--------------------------|-------------------| 
--------------------------|-------------------| 
--------------------------|-------------------| 


   T      T    T      T      T      T       T      T    T      T      T        
   S S S  S S  S S S  S S S  S S S  S S     S S S  S S  S S S  S S S  S Q      
----------------------------10----------|----------------------------10------| 
--------------10-------------------10---|--------------10--------------------| 
-----7-9-10-7----7-9-10-7-9----7-9----7-|-----7-9-10-7----7-9-10-7-9---------| 
--10------------------------------------|--10--------------------------------| 
----------------------------------------|------------------------------------| 
----------------------------------------|------------------------------------| 


   T      T    T      T      T      T     
   S S S  S S  S S S  S S S  S S S  S S   
----------------------------10----------| 
--------------10-------------------10---| 
-----7-9-10-7----7-9-10-7-9----7-9----7-| 
--10------------------------------------| 
----------------------------------------| 
----------------------------------------| 


   T      T    T      T      T      T     
   S S S  S S  S S S  S S S  S S S  S S   
----------------------------10----------| 
--------------10-------------------10---| 
-----7-9-10-7----7-9-10-7-9----7-9----7-| 
--10------------------------------------| 
----------------------------------------| 
----------------------------------------| 


   T        T     T        T        T        T      
   S  S  S  S  S  S  S  S  S  S  S  S  S  S  S  S   
-----------------------------------17-------------| 
-----------------17-------------------------17----| 
-----12-14-17-12----12-14-17-12-14----12-14----12-| 
--15----------------------------------------------| 
--------------------------------------------------| 
--------------------------------------------------| 


   T        T     T        T        T        T      
   S  S  S  S  S  S  S  S  S  S  S  S  S  S  S  S   
-----------------------------------17-------------| 
-----------------17-------------------------17----| 
-----12-14-17-12----12-14-17-12-14----12-14----12-| 
--15----------------------------------------------| 
--------------------------------------------------| 
--------------------------------------------------| 


   T        T     T        T        T        T      
   S  S  S  S  S  S  S  S  S  S  S  S  S  S  S  S   
-----------------------------------17-------------| 
-----------------17-------------------------17----| 
-----12-14-17-12----12-14-17-12-14----12-14----12-| 
--15----------------------------------------------| 
--------------------------------------------------| 
--------------------------------------------------| 


   T        T     T        T        T        T      
   S  S  S  S  S  S  S  S  S  S  S  S  S  S  S  S   
-----------------------------------17-------------| 
-----------------17-------------------------17----| 
-----12-14-17-12----12-14-17-12-14----12-14----12-| 
--15----------------------------------------------| 
--------------------------------------------------| 
--------------------------------------------------| 


   T      T    T      T      T      T     
   S S S  S S  S S S  S S S  S S S  S S   
----------------------------10----------| 
--------------10-------------------10---| 
-----7-9-10-7----7-9-10-7-9----7-9----7-| 
--10------------------------------------| 
----------------------------------------| 
----------------------------------------| 


   T      T    T      T      T      T     
   S S S  S S  S S S  S S S  S S S  S S   
----------------------------10----------| 
--------------10-------------------10---| 
-----7-9-10-7----7-9-10-7-9----7-9----7-| 
--10------------------------------------| 
----------------------------------------| 
----------------------------------------| 


   T      T    T      T      T      T     
   S S S  S S  S S S  S S S  S S S  S S   
----------------------------10----------| 
--------------10-------------------10---| 
-----7-9-10-7----7-9-10-7-9----7-9----7-| 
--10------------------------------------| 
----------------------------------------| 
----------------------------------------| 


   T      T    T      T      T      T     
   S S S  S S  S S S  S S S  S S S  S S   
----------------------------10----------| 
--------------10-------------------10---| 
-----7-9-10-7----7-9-10-7-9----7-9----7-| 
--10------------------------------------| 
----------------------------------------| 
----------------------------------------| 


   T        T     T        T        T        T      
   S  S  S  S  S  S  S  S  S  S  S  S  S  S  S  S   
-----------------------------------17-------------| 
-----------------17-------------------------17----| 
-----12-14-17-12----12-14-17-12-14----12-14----12-| 
--15----------------------------------------------| 
--------------------------------------------------| 
--------------------------------------------------| 


   T        T     T        T        T        T      
   S  S  S  S  S  S  S  S  S  S  S  S  S  S  S  S   
-----------------------------------17-------------| 
-----------------17-------------------------17----| 
-----12-14-17-12----12-14-17-12-14----12-14----12-| 
--15----------------------------------------------| 
--------------------------------------------------| 
--------------------------------------------------| 


   T        T     T        T        T        T      
   S  S  S  S  S  S  S  S  S  S  S  S  S  S  S  S   
-----------------------------------17-------------| 
-----------------17-------------------------17----| 
-----12-14-17-12----12-14-17-12-14----12-14----12-| 
--15----------------------------------------------| 
--------------------------------------------------| 
--------------------------------------------------| 


   T        T     T        T        T        T      
   S  S  S  S  S  S  S  S  S  S  S  S  S  S  S  S   
-----------------------------------17-------------| 
-----------------17-------------------------17----| 
-----12-14-17-12----12-14-17-12-14----12-14----12-| 
--15----------------------------------------------| 
--------------------------------------------------| 
--------------------------------------------------| 


   T               T               T            T             
   |--3-|  |--3-|  |--3-|  |--3-|  |-3-| |-3-|  |-3-|         
   S  S S  S S  S  S  S S  S S  S  S S S S S S  S S S  S  S   
------------------------------------------------------13-13-| 
------------------------------------------------------------| 
--14-10-7-10-7-10-14-10-7-10-7-10-14-9-7-9-7-9-14-9-7-------| 
------------------------------------------------------------| 
------------------------------------------------------------| 
------------------------------------------------------------| 


   S  S  S  S  S  S  S  S  S  S  S  S  S  S  S  S   
--13-13-13-13-12-12-12-12-12-12-12-12-------------| 
--------------------------------------13-13-13-13-| 
--------------------------------------------------| 
--------------------------------------------------| 
--------------------------------------------------| 
--------------------------------------------------| 


   T               T               T            T             
   |--3-|  |--3-|  |--3-|  |--3-|  |-3-| |-3-|  |-3-|         
   S  S S  S S  S  S  S S  S S  S  S S S S S S  S S S  S  S   
------------------------------------------------------13-13-| 
------------------------------------------------------------| 
--14-10-7-10-7-10-14-10-7-10-7-10-14-9-7-9-7-9-14-9-7-------| 
------------------------------------------------------------| 
------------------------------------------------------------| 
------------------------------------------------------------| 


   S  S  S  S  S  S  S  S  S  S  S  S  S  S  S  S   
--13-13-13-13-12-12-12-12-12-12-12-12-------------| 
--------------------------------------13-13-13-13-| 
--------------------------------------------------| 
--------------------------------------------------| 
--------------------------------------------------| 
--------------------------------------------------| 


   T               T               T            T             
   |--3-|  |--3-|  |--3-|  |--3-|  |-3-| |-3-|  |-3-|         
   S  S S  S S  S  S  S S  S S  S  S S S S S S  S S S  S  S   
------------------------------------------------------13-13-| 
------------------------------------------------------------| 
--14-10-7-10-7-10-14-10-7-10-7-10-14-9-7-9-7-9-14-9-7-------| 
------------------------------------------------------------| 
------------------------------------------------------------| 
------------------------------------------------------------| 


   S  S  S  S  S  S  S  S  S  S  S  S  S  S  S  S   
--13-13-13-13-12-12-12-12-12-12-12-12-------------| 
--------------------------------------13-13-13-13-| 
--------------------------------------------------| 
--------------------------------------------------| 
--------------------------------------------------| 
--------------------------------------------------| 


   S  S  S  S  S  S  S  S  S  S  S  S  S  S  S  S   
--------------------------------------------------| 
--10-10-10-10-10-10-10-10-10-10-10-10-10-10-10-10-| 
--------------------------------------------------| 
--------------------------------------------------| 
--------------------------------------------------| 
--------------------------------------------------| 


   S  S  S  S  S  S  S  S  S  S  S  S  S  S  S  S   
--------------------------------------------------| 
--11-11-11-11-11-11-11-11-13-13-13-13-13-13-13-13-| 
--------------------------------------------------| 
--------------------------------------------------| 
--------------------------------------------------| 
--------------------------------------------------| 


      PM PM PM PM         PM PM   PM PM     
  S S S  S  S  S  S S S S S  S  S S  S  S   
------------------------------------------| 
------------------------------------------| 
------------------------------------------| 
------0--0--0--0----------0--0----0--0----| 
--5---0--0--0--0----------0--0----0--0----| 
------0--0--0--0----------0--0----0--0----| 


      PM PM PM PM   PM PM   PM PM   PM PM     
  S S S  S  S  S  S S  S  S S  S  S S  S  S   
--------------------------------------------| 
--------------------------------------------| 
--------------------------------------------| 
------0--0--0--0----0--0----0--0----0--0----| 
------0--0--0--0----0--0----0--0----0--0----| 
------0--0--0--0----0--0----0--0----0--0----| 


  PM   PM PM PM PM   PM PM   PM PM   PM PM     
  S  S S  S  S  S  S S  S  S S  S  S S  S  S   
---------------------------------------------| 
---------------------------------------------| 
---------------------------------------------| 
--0----0--0--0--0----0--0----0--0----0--0----| 
--0----0--0--0--0----0--0----0--0----0--0----| 
--0----0--0--0--0----0--0----0--0----0--0----| 

                                                  (Piano) 

      PM PM PM PM   PM PM   PM PM   PM PM                                 
  S S S  S  S  S  S S  S  S S  S  S S  S  S          H         H          
--------------------------------------------|----|--22--------18--------| 
--------------------------------------------|----|----------------------| 
--------------------------------------------|----|----------------------| 
------0--0--0--0----0--0----0--0----0--0----|----|----------------------| 
------0--0--0--0----0--0----0--0----0--0----|----|----------------------| 
------0--0--0--0----0--0----0--0----0--0----|----|----------------------| 


   H        Q    E  S  S     H         H            Q     H        Q      
--17--------L----L--L----|------------17--------|--------17--------L----| 
-------------------------|--20------------------|--20-------------------| 
----------------------20-|----------------------|-----------------------| 
-------------------------|----------------------|-----------------------| 
-------------------------|----------------------|-----------------------| 
-------------------------|----------------------|-----------------------| 


  H        Q    E   S  S     W                    Q     Q    H          
--L--------L----L--------|--12----------------|--12----13-------------| 
----------------------15-|--------------------|-----------------------| 
-------------------14----|--------------------|-----------------------| 
-------------------------|--------------------|-----------------------| 
-------------------------|--------------------|-----------------------| 
-------------------------|--------------------|-----------------------| 


Duration Legend 
--------------- 
W - whole 
H - half 
Q - quarter 
E - 8th 
S - 16th 
T - 32nd 
X - 64th 
. - note dotted 
|-n-|  - n-tuplets 


Tablature Legend 
---------------- 
L - tied note 
x - dead note 
g - grace note 
(n) - ghost note 
> - accentuded note 
NH - natural harmonic 
AH - artificial harmonic 
TH - tapped harmonic 
SH - semi harmonic 
PH - pitch harmonic 
h - hammer on 
p - pull off 
b - bend 
br - bendRelease 
pb - preBend 
pbr - preBendRelease 
brb - bendReleaseBend 
\n/ - tremolo bar dip 
\n - tremolo bar dive 
-/n - tremolo bar Release up 
/n\ - tremolo bar inverted dip 
/n - tremolo bar return 
-\n - tremolo bar Release down 
S - shift slide 
s - legato slide 
/ -  slide into from below or out of upwards 
\ -  slide into from above or out of downwards 
~ - vibrato 
W - wide vibrato 
tr - trill 
TP - tremolo picking 
T - tapping 
S - slap 
P - pop 
< - fade in 
^ - brush up 
v - brush down 

 
		  

See also:

tabs The Strokes - Reptilia(completa) tabs Guns N' Roses - Since I Don't Have You tabs Guns N' Roses - 14 Years tabs Creed - One Last Breath (ver. 2) tabs John Mayer - Daughters tabs Bon Jovi - It's My Life
e-chords

Other versions:

tabs The Word Alive - Play The Victim
auto scroll beats size up size down change color hide chords drawings
tab show chords e-chords YouTube Clip e-chords hide all tabs e-chords go to top tab

share