The Wonder Years

Bout To Get Fruit Punched Homie

The Wonder Years

tabs

by  TAMAMOREIRA

save to print version add songbook text version e-mail correct tuner
chordsukulelecavacokeyboardtabbassdrumsharmonicaflute Guitar Pro
close

there isn't a video lesson for this song

chords

Bout To Get Fruit Punched Homie

	  		
	 
intro
 
 D#|-------------------------------------|  
 A#|-------------------------------------|  
 F#|-------------------------------------|  
 C#|-12\-0h2-2--0h9-9-9--4h5-5--0-7--0-7-|  
 G#|-12\-0h2-2--0h9-9-9--4h5-5--0-7--0-7-|  
 C#|-12\-0h2-2--0h9-9-9--4h5-5--0-7--0-7-|  


 D#|-----------------------------------|  
 A#|-----------------------------------|  
 F#|-----------------------------------|  
 C#|--0h2-2--0h9-9-9--4h5-5--0-7--0-7--|  x3 
 G#|--0h2-2--0h9-9-9--4h5-5--0-7--0-7--|  
 C#|--0h2-2--0h9-9-9--4h5-5--0-7--0-7--|  

 D#|----------------------------------------|  
 A#|----------------------------------------|  
 F#|----------------------------------------|  
 C#|--0~---0-7--0-7---0~--------pickslide-|  
 G#|--0~---0-7--0-7---0~--------pickslide-|  
 C#|--0~---0-7--0-7---0~--------pickslide-|  

	Verse  
 D#|-----------------------------------------|  
 A#|-----------------------------------------|  
 F#|-----------------------------------------|  
 C#|--0-0--0h9-9-9-7-7-7-7--2-2-2--4-5-5-5-5-|  x2 
 G#|--0-0--0h9-9-9-7-7-7-7--2-2-2--4-5-5-5-5-|  
 C#|--0-0--0h9-9-9-7-7-7-7--2-2-2--4-5-5-5-5-|  

                                                   THEN JUICE WILL SPILL 
 D#|---------------------------------------------|     |--+7-------| 
 A#|---------------------------------------------|     |-----+7----| 
 F#|---------------------------------------------|     |--------+7-| 
 C#|-0-0--0-9-7-7--7-7--7-7--2-2-2--4-4-5-5--5-5-|  x2 |-----------| 
 G#|-0-0--0-9-7-7--7-7--7-7--2-2-2--4-4-5-5--5-5-|     |-----------| 
 C#|-0-0--0-9-7-7--7-7--7-7--2-2-2--4-4-5-5--5-5-|     |-----------|    
    * *  * * * *  * *  * *  * * *  * * * *  * *      

 D#|------------------------------------------------------|  
 A#|------------------------------------------------------|  
 F#|------------------------------------------------------|  
 C#|-0-0-0-0-0~----2-2-2-2-2~----5-5-5-5-5~----7-7-7-7-7~-|  x2 
 G#|-0-0-0-0-0~----2-2-2-2-2~----5-5-5-5-5~----7-7-7-7-7~-|  
 C#|-0-0-0-0-0~----2-2-2-2-2~----5-5-5-5-5~----7-7-7-7-7~-|  
    * * * *       * * * *       * * * *       * * * *  

 D#|--------------------------------|  
 A#|--------------------------------|  
 F#|--------------------------------|  
 C#|--9-9-xx--7-7--12\---2-2-2-4-5~-|  
 G#|--9-9-xx--7-7--12\---2-2-2-4-5~-|  
 C#|--9-9-xx--7-7--12\---2-2-2-4-5~-|  


 D#|------------------------------------------------------|  
 A#|------------------------------------------------------|  
 F#|------------------------------------------------------|  
 C#|-0-0-0-0-0--2-2-2-2-2--5-5-5-5-5---2--4--5---7777777--|  
 G#|-0-0-0-0-0--2-2-2-2-2--5-5-5-5-5---2--4--5---7777777--|  
 C#|-0-0-0-0-0--2-2-2-2-2--5-5-5-5-5---2--4--5---7777777--|  
    * * * *    * * * *    * * * * 

 D#|-----------------------------------|  
 A#|-----------------------------------|  
 F#|-----------------------------------|  
 C#|--0h2-2--0h9-9-9--4h5-5--0-7--0-7--|  x2 
 G#|--0h2-2--0h9-9-9--4h5-5--0-7--0-7--|  
 C#|--0h2-2--0h9-9-9--4h5-5--0-7--0-7--|  


 D#|---------------------------------------------------------|  
 A#|---------------------------------------------------------|  
 F#|---------------------------------------------------------|  
 C#|-0~------------------------0~---------------------7-7-7--|  
 G#|-0~------------------------0~---------------------7-7-7--|  
 C#|-0~------------------------0~---------------------7-7-7--|  
  

 D#|---------------------------------------------|     |----------------| 
 A#|---------------------------------------------|     |----------------| 
 F#|---------------------------------------------|     |----------------| 
 C#|-0-0--0-9-7-7--7-7--7-7--2-2-2--4-4-5-5--5-5-|  x2 |----------------| 
 G#|-0-0--0-9-7-7--7-7--7-7--2-2-2--4-4-5-5--5-5-|     |-0-0--0--0-0-0--| 
 C#|-0-0--0-9-7-7--7-7--7-7--2-2-2--4-4-5-5--5-5-|     |-0-0--0--0-0-0--|    
    * *  * * * *  * *  * *  * * *  * * * *  * *        * *  *  * * *  

       breakdown 
 D#|-------------------------------------------------------|  
 A#|-------------------------------------------------------|  
 F#|-------------------------------------------------------|  
 C#|-------------------------------------------------------|  x2 
 G#|-0-0--0--0-0-0-0--0--0-0-0---0-0--0---0-0-0----0-0-0-0-|  
 C#|-0-0--0--0-0-0-0--0--0-0-0---0-0--0---0-0-0----0-0-0-0-|  
    * *  *  * * * *  *  * * *   * *  *   * * *    * * * * 

                ILL DISCONNECT................THE CAPTAINS NECK 
 D#|--------------------------------------------------------------|  
 A#|--------------------------------------------------------------|  
 F#|--------------------------------------------------------------|  
 C#|--------------------------------------------------12\---------|  
 G#|-0-0--0--0-0-0--------------0-0--0--0-0-0---------12\---------|  
 C#|-0-0--0--0-0-0--------------0-0--0--0-0-0---------12\---------|  
    * *  *  * * *              * *  *  * * * 
               AND MAKE HIM WISH...............THAT HE WAS DEAD 
 D#|--------------------------------------------------------------|  
 A#|--------------------------------------------------------------|  
 F#|--------------------------------------------------------------|  
 C#|--------------------------------------------------------------|  
 G#|-0-0--0--0-0-0---------------0-0--0--0-0-0---------0-0-0-0----|  
 C#|-0-0--0--0-0-0---------------0-0--0--0-0-0---------0-0-0-0----|  
    * *  *  * * *               * *  *  * * *         * * * 

SMASH YA SKULL LIKE A CRUNCHBERRY, PUNK 
 D#|------------------|  
 A#|------------------|  
 F#|--12---------11---|  
 C#|-----x8--------x8-|  
 G#|--10---------9----|  
 C#|------------------|  

 last-chorus 
 D#|----------------------------------|  
 A#|----------------------------------|  
 F#|----------------------------------|  
 C#|-0-0-0-0-0--2-2-2-2-2--5-5-5-5-5-5|  x2 
 G#|-0-0-0-0-0--2-2-2-2-2--5-5-5-5-5-5|  
 C#|-0-0-0-0-0--2-2-2-2-2--5-5-5-5-5-5|  

 D#|---------------------------------------|  
 A#|---------------------------------------|  
 F#|---------------------------------------|  
 C#|--9--9-9---7-7--7---5-5--5---7-7--7----|  
 G#|--9--9-9---7-7--7---5-5--5---7-7--7----|  
 C#|--9--9-9---7-7--7---5-5--5---7-7--7----|  

                    so keep my name out of your mouth, son 
 D#|------------------------------------------------------------------------------|  
 A#|------------------------------------------------------------------------------|  
 F#|------------------------------------------------------------------------------|  
 C#|-9-9--9--7-7--7--5-5--2-2--5-5--2-2--5-5--2-2--5-5--2-2---0-0-0-0-0-0-0-0-0-0-|  
 G#|-9-9--9--7-7--7--5-5--2-2--5-5--2-2--5-5--2-2--5-5--2-2---0-0-0-0-0-0-0-0-0-0-|  
 C#|-9-9--9--7-7--7--5-5--2-2--5-5--2-2--5-5--2-2--5-5--2-2---0-0-0-0-0-0-0-0-0-0-|  
 
		  

auto scroll beats size up size down change color hide chords drawings
tab show chords e-chords YouTube Clip e-chords hide all tabs e-chords go to top tab

share