save to print version add songbook text version e-mail correct tuner
chordsukulelecavacokeyboardtabbassdrumsharmonicaflute Guitar Pro
close

there isn't a video lesson for this song

chords

High Coin

	  		


PART 1 
    
         C   C/B Am  G   F   F/E  G      C   G   F   Bb  C 
          
e|-----0-3----3-0--------------------------------------------------| 
B|---1-------------1---0---1----1---0----1-----------------1-----1-| 
G|-0-------0---0---2---0---2--2---0---0-------0----2--3-0-----0----|  x3 
D|-----------------------------3---0---0---2---0---3--3--------2---| 
A|-------3---2---0-----------------------3-----------1-0-3---3---3-| 
E|-------------------3---1---0---1---3-------3---1-----------------| 


PART 2 

   Am        Em/B      Dm                   F              D7sus2/F#       G  

e|---5---------3---------1-------0h1p0--------------1--------0----0---0-----------0--1-----0-| 
B|---5---5-----5---5-----3---3---3----3-------1---------1-------1---1---1------3--------3----| 
G|---5----5----4----4----2----2--2------2--------2-------2------2---2---2------0--------0----| 
D|---------------------0-----------------0---------------------------------------------------| 
A|-0---------2-------------------------------------------------------------------------------| 
E|------------------------------------------1--------------2---------------3-----------------| 


(back to) PART 1 

         C   C/B Am  G   F   F/E  G      C   G   F   Bb  C 
          
e|-----0-3----3-0--------------------------------------------------| 
B|---1-------------1---0---1----1---0----1-----------------1-----1-| 
G|-0-------0---0---2---0---2--2---0---0-------0----2--3-0-----0----|  x4 
D|-----------------------------3---0---0---2---0---3--3--------2---| 
A|-------3---2---0-----------------------3-----------1-0-3---3---3-| 
E|-------------------3---1---0---1---3-------3---1-----------------| 
		  

Full key step upFull key step up
Half key step upHalf key step up
Half key step downHalf key step down
Full key step downFull key step down
hide glossary

See also:

tabs Deep Purple - Deep Purple - Smoke On The Water tabs Albert Hammond Jr - Miss Myrtle tabs Deep Purple - The Unwritten Law tabs Deep Purple - Pictures of Home tabs Deep Purple - Space Truckin tabs Deep Purple - Rat Bat Blues
e-chords

Other versions:

tabs The West Coast Pop Art Experimental Band - High Coin
auto scroll beats size up size down change color hide chords drawings
tab show chords e-chords YouTube Clip e-chords hide all tabs e-chords go to top tab

share with facebook