The Von Bondies

Poison Ivy

The Von Bondies

tabs

by  WEEZER PILLOWS

save to print version add songbook text version e-mail correct tuner
chordsukulelecavacokeyboardtabbassdrumsharmonicaflute Guitar Pro
close

there isn't a video lesson for this song

chords

Poison Ivy

	  		poison ivy! 
by the von bondies      tabbed by: Weezer Pillows 
 
STANDARD TUNING 
 
Intro / Verse 
|-----------------------------------| 
|-----------------------------------| 
|--5-5-5-5-5-5-5-5-3-3-3-3-3-3-3-3--|played  
|--5-5-5-5-5-5-5-5-3-3-3-3-3-3-3-3--|several 
|--3-3-3-3-3-3-3-3-1-1-1-1-1-1-1-1--|times 
|-----------------------------------| 
 
Pre-Chorus 
|-----------------------------------| 
|-----------------------------------| 
|--5-5-5-5-5-5-5-5------------------| 
|--5-5-5-5-5-5-5-5-5-5-5-5-5-5-5-5--| 
|--3-3-3-3-3-3-3-3-5-5-5-5-5-5-5-5--| 
|------------------3-3-3-3-3-3-3-3--| 
 
|-----------------------------------| 
|-----------------------------------| 
|--8-8-8-8---------5-5-5-5-5-5-5-5--| 
|--8-8-8-8-8-8-8-8-5-5-5-5-5-5-5-5--| 
|--6-6-6-6-8-8-8-8-3-3-3-3-3-3-3-3--| 
|----------6-6-6-6------------------| 
 
Chorus 
|-----| 
|-----| 
|-----|This power chord is played   
|--5--|many of times... 
|--5--| 
|--3--| 
 
Then. . . 
|----------------| 
|----------------| 
|--3-5-3---------| 
|--------5-3-----| 
|-------------3--| 
|----------------| 
 
Now, This riff is played while 
gtr. 2 is playing intro. 
|---------------| 
|---------------| 
|----3----------|played 
|--5---5--------|many times 
|--------3---3--| 
|----------3----| 
 
That's all folks! 
 
have fun! 
 
 
 

		  

See also:

tabs Red Hot Chili Peppers - Under the Bridge tabs Eye of the tiger - Eye of the tiger tabs Los Lonely Boys - Heaven tabs Red Hot Chili Peppers - Snow (hey oh) tabs Jeff Buckley - Hallelujah tabs Red Hot Chili Peppers - Venice Queen
e-chords

Other versions:

tabs The Von Bondies - Poison Ivy
auto scroll beats size up size down change color hide chords drawings
tab show chords e-chords YouTube Clip e-chords hide all tabs e-chords go to top tab

share