The Von Bondies

Pawn Shoppe Heart

The Von Bondies

tabs

by  WEEZER PILLOWS

save to print version add songbook text version e-mail correct tuner
chordsukulelecavacokeyboardtabbassdrumsharmonicaflute Guitar Pro
close

there isn't a video lesson for this song

chords

Pawn Shoppe Heart

	  		Pawn Shoppe Heart 
by Von Bondies 

STANDARD TUNING 

Intro 
|------------------------------------------| 
|------------------------------------------| 
|------------------------------------------| 
|------------------------------------------| x2 
|--7--7-5---5--5---------------------------| 
|---------7------7-6-5--5-7-5-3-3-3-2-3-2--| 

|------------------------------------------| 
|------------------------------------------| 
|--9--7-9---7--7---------------------------| 
|--9--7-9-9-7--7-9-8-7--7-9-7-5-5-5-4-5-4--| x2 
|--7--5-7-9-5--5-9-8-7--7-9-7-5-5-5-4-5-4--| 
|---------7------7-6-5--5-7-5-3-3-3-2-3-2--| 

Verse 
|------------------------------------------| 
|---------------p--------------------------| 
|--9--7-9---7---a--------------------------| 
|--9--7-9-9-7---u----7--7-9-7-5-5-5-4-5-4--| x2 
|--7--5-7-9-5---s----7--7-9-7-5-5-5-4-5-4--| 
|---------7-----e----5--5-7-5-3-3-3-2-3-2--| 

|------------------------------------------| 
|------------------------------------------| 
|--9--7-9---7--7---------------------------| 
|--9--7-9-9-7--7-9-8-7--7-9-7-5-5-5-4-5-4--| x2 
|--7--5-7-9-5--5-9-8-7--7-9-7-5-5-5-4-5-4--| 
|---------7------7-6-5--5-7-5-3-3-3-2-3-2--| 

Chorus 
|------------------------------------------| 
|------------------------------------------| 
|--9--7-9---7--7---------------------------| 
|--9--7-9-9-7--7-9-8-7--7-9-7-5-5-5-4-5-4--| 
|--7--5-7-9-5--5-9-8-7--7-9-7-5-5-5-4-5-4--| 
|---------7------7-6-5--5-7-5-3-3-3-2-3-2--| 

End On 
|------| 
|------| 
|--9~--| 
|--9~--| 
|--7~--| 
|--0~--| 


		  

See also:

tabs Red Hot Chili Peppers - Under the Bridge tabs Eye of the tiger - Eye of the tiger tabs Los Lonely Boys - Heaven tabs Red Hot Chili Peppers - Snow (hey oh) tabs Jeff Buckley - Hallelujah tabs Red Hot Chili Peppers - Venice Queen
e-chords

Other versions:

tabs The Von Bondies - Pawn Shoppe Heart
auto scroll beats size up size down change color hide chords drawings
tab show chords e-chords YouTube Clip e-chords hide all tabs e-chords go to top tab

share