The Von Bondies

No Regrets

The Von Bondies

tabs

by  WEEZER PILLOWS

save to print version add songbook text version e-mail correct tuner
chordsukulelecavacokeyboardtabbassdrumsharmonicaflute Guitar Pro
close

there isn't a video lesson for this song

chords

No Regrets

	  		No Regrets 

STANDARD TUNING 

. = palm mute 
b = bend 
/ = slide 
~ = let ring 

Intro 
|---------------| 
|---------------| 
|---------------| 
|---------------| repeat 
|--2~~~--/13b---| 
|--0~~~---------| 

Verse 
|----------------------------| 
|----------------------------| 
|----------------------------| 
|--2----------------5-4-5-2--| repeat 
|--2----------------5-4-5-2--| 
|--0-0000-0000-0000-3-2-3-0--| 
     .... .... .... 

Chorus 
|-----------------------------------------------| 
|-----------------------------------------------| 
|---------------------------------7-8-9--9-9-9--| 
|--9-5-7-5--2------------9-5-7-5--7-8-9--9-9-9--| 
|--9-5-7-5--2------------9-5-7-5--5-6-7--7-7-7--| 
|--7-3-5-3--0--0000-0000-7-3-5-3----------------| 
               .... .... 


		  

See also:

tabs Red Hot Chili Peppers - Under the Bridge tabs Eye of the tiger - Eye of the tiger tabs Los Lonely Boys - Heaven tabs Red Hot Chili Peppers - Snow (hey oh) tabs Jeff Buckley - Hallelujah tabs Red Hot Chili Peppers - Venice Queen
e-chords

Other versions:

tabs The Von Bondies - No Regrets tabs Magic! - No Regrets
auto scroll beats size up size down change color hide chords drawings
tab show chords e-chords YouTube Clip e-chords hide all tabs e-chords go to top tab

share