The Von Bondies

Lack of Communication

The Von Bondies

tabs

by  WEEZER PILLOWS

save to print version add songbook text version e-mail correct tuner
chordsukulelecavacokeyboardtabbassdrumsharmonicaflute Guitar Pro
close

there isn't a video lesson for this song

chords

Lack of Communication

	  		lack of communication 
lead guitarist: Marcy bolen 
rythym guitarist: Jason stollsteimer 
 
STANDARD TUNING 
 
Riff 1 - marcy 
|------------| 
|------------| 
|------------| 
|------------| x3 
|--3~-2~-0~--| 
|------------| 
Jason plays an A chord over 
and over again. 
 
|------------| 
|------------| 
|------------| 
|------------| 
|--------0~--| 
|--3~-2~-----| 
Jason continues with the A chords. 
 
Jason plays these two chords before riff 2. 
 G, D 
 
Riff 2 - marcy 
|-----------------------| 
|-----------------------| 
|-----------------------| 
|-----------------------| 
|--0-0-----3-3-5-3-5-3--| 
|------3-3--------------| 
Jason plays these chords- 
 A, G, C, D 
 
That's all folks! 
 
have fun! 
 
 
 
 

		  

Full key step upFull key step up
Half key step upHalf key step up
Half key step downHalf key step down
Full key step downFull key step down
hide glossary

See also:

tabs Red Hot Chili Peppers - Under the Bridge tabs Eye of the tiger - Eye of the tiger tabs Los Lonely Boys - Heaven tabs Red Hot Chili Peppers - Snow (hey oh) tabs Jeff Buckley - Hallelujah tabs Red Hot Chili Peppers - Venice Queen
e-chords

Other versions:

tabs The Von Bondies - Lack of Communication
auto scroll beats size up size down change color hide chords drawings
tab show chords e-chords YouTube Clip e-chords hide all tabs e-chords go to top tab

share