The Ugly Club

Last Evenings (acoustic)

The Ugly Club

tabs

by  DEIVCAVALCANTI

save to print version add songbook text version e-mail correct tuner
chordsukulelecavacokeyboardtabbassdrumsharmonicaflute Guitar Pro
close

there isn't a video lesson for this song

chords

Last Evenings (acoustic)

	  		

Intro: 
e|--2---0-0-0--2--| 
B|--0---2-2-0--0--| 
G|--0---0-0-0--0--| 
D|--0---0-0-0--0--|    x12 
A|--0---0-0-0--0--| 
E|--3---3-3-3--3--| 

Pre-Chorus 
e|--0-0--0-0--0-0-0-0--0-0--0-0-0-0--2-2-2-2-2--0-0-0-0-0--| 
B|--2-2--2-2--2-3-3-3--2-2--2-3-3-3--3-3-3-3-3--2-2-2-2-2--| 
G|--0-0--0-0--0-0-0-0--0-0--0-0-0-0--4-4-4-4-4--2-2-2-2-2--| 
D|--0-0--2-2--2-2-2-2--2-2--2-2-2-2--4-4-4-4-4--2-2-2-2-2--|    x2  
A|--0-0--2-2--2-2-2-2--2-2--2-2-2-2--2-2-2-2-2--0-0-0-0-0--| 
E|--3-3--0-0--0-0-0-0--0-0--0-0-0-0--0-0-0-0-0--0-0-0-0-0--| 

Chorus: 
e|--2-2-2-2-2--2-2-2-2-2--0-0-0-0-0--0-0-0-0-0--3-3-3-3-3--0-0-0-0-0--2--0-| 
B|--3-3-3-3-3--2-2-2-2-2--1-1-1-1-13-1-1-1-1-1--3-3-3-3-3--2-2-2-2-2--3--2-| 
G|--2-2-2-2-2--3-3-3-3-3--2-2-2-2-2--2-2-2-2-2--0-0-0-0-0--2-2-2-2-2--4--2-| 
D|--0-0-0-0-0--4-4-4-4-4--2-2-2-2-2--2-2-2-2-2--0-0-0-0-0--2-2-2-2-2--4--2-| 
A|--0-0-0-0-0--4-4-4-4-4--0-0-0-0-0--0-0-0-0-0--2-2-2-2-2--0-0-0-0-0--2--0-| 
E|--0-0-0-0-0--2-2-2-2-2--0-0-0-0-0--0-0-0-0-0--3-3-3-3-3--0-0-0-0-0--0--0-| 

e|-0--0-0-0-0-| 
B|-2--0-0-0-0-| 
G|-2--1-1-1-1-| 
D|-2--2-2-2-2-|    x2 
A|-0--2-2-2-2-| 
E|-0--0-0-0-0-| 

Riff Played Before Bridge: 

e|--2--0--2-2-0-2-| 
B|--0--0--0-0-0-0-| 
G|--0--0--0-0-0-0-| 
D|--0--0--0-0-0-0-| 
A|--0--0--0-0-0-0-| 
E|--3--3--3-3-3-3-| 


6/8 Bridge: 
e|---x-x----7-7----x-x----7-----x-x----7-7----x-x---0-0-2-| 
B|---7-7----8-8----7-7----8-----7-7----8-8----5-5---2-1-3-| 
G|---7-7----9-9----7-7----9-----7-7----9-9----5-5---2-0-2-| 
D|---7-7----9-9----7-7----9-----7-7----9-9----5-5---2-2-0-|    x5 
A|-5-5-5--7-7-7--5-5-5--7-7---5-5-5--7-7-7--3-3-3---0-3-0-| 
E|---x-x----x-x----x-x----x-----x-x----x-x----x-x---0-0-0-| 

Piano/Guitar Riff In Bridge: 
e|--7------7-------7-----------7-5-5-7-9-12-| 
B|----7-85--7-8578--7-85-35-7-8---8---------| 
G|------------------------------------------| 
D|------------------------------------------| 
A|------------------------------------------| 
E|------------------------------------------| 

Breakdown Back Into Chorus: 
e|--2--------0--------0--------3---0--2-0-0--0-0-0-0-| 
B|--3--------2--------1--------3---2--3-2-2--0-0-0-0-| 
G|--2--------2--------2--------0---2--4-2-2--1-1-1-1-| 
D|--0--------2--------2--------0---2--4-2-2--2-2-2-2-| 
A|--0--------0--------0--------2---0--2-0-0--2-2-2-2-| 
E|--0--------0--------0--------3---0--0-0-0--0-0-0-0-| 

Chorus 2: 
e|--2-2-2-2-2--2-2-2-2-2--0-0-0-0-0--0-0-0-0-0--3-3-3-3-3--0-0-0-0-0--2--0-| 
B|--3-3-3-3-3--2-2-2-2-2--1-1-1-1-13-1-1-1-1-1--3-3-3-3-3--2-2-2-2-2--3--2-| 
G|--2-2-2-2-2--3-3-3-3-3--2-2-2-2-2--2-2-2-2-2--0-0-0-0-0--2-2-2-2-2--4--2-| 
D|--0-0-0-0-0--4-4-4-4-4--2-2-2-2-2--2-2-2-2-2--0-0-0-0-0--2-2-2-2-2--4--2-| 
A|--0-0-0-0-0--4-4-4-4-4--0-0-0-0-0--0-0-0-0-0--2-2-2-2-2--0-0-0-0-0--2--0-| 
E|--0-0-0-0-0--2-2-2-2-2--0-0-0-0-0--0-0-0-0-0--3-3-3-3-3--0-0-0-0-0--0--0-| 

e|-0--0-0-0-0-| 
B|-2--0-0-0-0-| 
G|-2--1-1-1-1-| 
D|-2--2-2-2-2-|    x3 
A|-0--2-2-2-2-| 
E|-0--0-0-0-0-| 

Outro: 
e|--2-0-2-0-0-2---2-0-2-0-0-2---0-0-0-0-0-0-| 
B|--0-0-0-0-0-0---0-0-0-0-0-0---2-2-3-2-2-3-| 
G|--0-0-0-0-0-0---0-0-0-0-0-0---0-0-0-0-0-0-| 
D|--0-0-0-0-0-0---0-0-0-0-0-0---2-2-2-2-2-2-|     x2 
A|--0-0-0-0-0-0---0-0-0-0-0-0---2-2-2-2-2-2-| 
E|--3-3-3-3-3-3---3-3-3-3-3-3---0-0-0-0-0-0-| 

END 
		  

See also:

tabs Deep Purple - Ive Got Your Number tabs Deep Purple - Fireball tabs Albert Hammond Jr - Gfc tabs Deep Purple - Fireball (ver. 2) tabs Deep Purple - Never A Word tabs Ira! - Eu quero sempre mais (Solo)
e-chords

Other versions:

tabs The Ugly Club - Last Evenings (acoustic)
auto scroll beats size up size down change color hide chords drawings
tab show chords e-chords YouTube Clip e-chords hide all tabs e-chords go to top tab

share