The Trafalgars

London Taxi

The Trafalgars

tabs

save to print version add songbook text version e-mail correct tuner
chordsukulelecavacokeyboardtabbassdrumsharmonicaflute Guitar Pro
close

there isn't a video lesson for this song

chords

London Taxi

	  		Transcribed: 18 March 2004 
 
Notes: Gotta love the way he sings "Buus" in this song. 
This track is getting some serious airplay on Triple J 
so I thought I'd give the tab a go. Comments and corrections 
welcome. 
 
INTRO: 
E-|----------------------------------------------------|- 
B-|-9----7-------------------9----7--7-7---------------|- 
G-|-9----7----4-4/6-6-7-6----9----7--7-7--4-4-4---6-6--|- 
D-|-9----7----5-5/7-7-7-7----9----7--7-7--5-5-5---7-7--|- 
A-|-7----5----5-5/7-7-7-7----7----5--5-5--5-5-5---7-7--|- 
E-|---------------------------------------3-3-3---5-4--|- 
 
E-|-----------------------------|- 
B-|-9-9-9-9--7-7----------------|- 
G-|-9-9-9-9--7-7--4-4-4-4--6-6--|- 
D-|-9-9-9-9--7-7--5-5-5-5--7-7--|-(x 4) 
A-|-7-7-7-7--5-5--5-5-5-5--7-7--|- 
E-|---------------3-3-3-3--5-5--|- 
 
VERSE: 
E-|-----------------------|-		-|---------------------------|- 
B-|-9----7----------------|-		-|-9----7--7-7---------------|- 
G-|-9----7----4-4/6-6-7-6-|-		-|-9----7--7-7--4-4-4---6-6--|- 
D-|-9----7----5-5/7-7-7-7-|-(x 3)	-|-9----7--7-7--5-5-5---7-7--|- 
A-|-7----5----5-5/7-7-7-7-|-		-|-7----5--5-5--5-5-5---7-7--|- 
E-|-----------------------|-		-|--------------3-3-3---5-4--|- 
 
E-|-----------------------------|-	-|--------------------|- 
B-|-9-9-9-9--7-7----------------|-	-|--------------------|- 
G-|-9-9-9-9--7-7--4-4-4-4--6-6--|-	-|-8-8-8-8--9-9-9-9-8-|- 
D-|-9-9-9-9--7-7--5-5-5-5--7-7--|-(x 3)	-|-9-9-9-9--9-9-9-9-9-|- 
A-|-7-7-7-7--5-5--5-5-5-5--7-7--|-	-|-9-9-9-9--9-9-9-9-9-|- 
E-|---------------3-3-3-3--5-5--|-	-|-7---7----7-7-7-7-7-|- 
 
CHORUS: 
E-|----------------------------------------------|- 
B-|-9--10-10-9---4-5-5-4---9--10-10-9---2-3-3-2--|- 
G-|-9--9--9--9---4-4-4-4---9--9--9--9---2-2-2-2--|- 
D-|-9--9--9--9---4-4-4-4---9--9--9--9---2-2-2-2--|- 
A-|-7--7--7--7---2-2-2-2---7--7--7--7---0-0-0-0--|- 
E-|----------------------------------------------|- 
 
E-|-------------------------------------------------------------------------|- 
B-|-9--10-10-9---4-5-5-4---2-3-3-2---9-9-9-9--9-------9--9--9--9-------9--9-|- 
G-|-9--9--9--9---4-4-4-4---2-2-2-2---9-9-9-9--9--4-4--9--9--9--9--4-4--9--9-|- 
D-|-9--9--9--9---4-4-4-4---2-2-2-2---9-9-9-9--9--5-5--9--9--9--9--5-5--9--9-|- 
A-|-7--7--7--7---2-2-2-2---0-0-0-0---7-7-7-7--7--5-5--7--7--7--7--5-5--7--7-|- 
E-|----------------------------------------------3-3--------------3-3-------|- 
 
SOLO: (incomplete) 
E-|----------------------------------------------------------------------|- 
B-|------------------12-12-12b-10----10---12--12b--10-9--10-9-10b-9------|- 
G-|-9-9-9b-8~~--/11---------------11---------------------------------11--|- 
D-|----------------------------------------------------------------------|- 
A-|----------------------------------------------------------------------|- 
E-|----------------------------------------------------------------------|- 
 
 
E-|-------------------------------------------------|- 
B-|-------------------------------------------------|- 
G-|-11-13-11-13b-13b-13p11\9--7--9~~--7-9~~--7-9~~--|- 
D-|-------------------------------------------------|- 
A-|-------------------------------------------------|- 
E-|-------------------------------------------------|- 
 
 
E-|-------------------------------------|- 
B-|-------------------------------------|- 
G-|-7h9p7--4-2-0------------------------|- 
D-|--------------2-0-2~~--0-2~~--0-2~~--|- 
A-|-------------------------------------|- 
E-|-------------------------------------|- 
 
 
The rest of the song is repeats of the above progressions - just play 
along to the song & you should get it right :) 

		  

See also:

tabs John Butler Trio - Attitude tabs The Dissociatives - Horror With Eyeballs tabs Wolfmother - Woman tabs Pete Murray - Tonic tabs Virgin Black - Our Wings Are Burning tabs Russell Morris - On The Wings Of An Eagle
e-chords

Other versions:

tabs The Trafalgars - London Taxi
auto scroll beats size up size down change color hide chords drawings
tab show chords e-chords YouTube Clip e-chords hide all tabs e-chords go to top tab

share