The Tallest Man On Earth

In The Pockets

The Tallest Man On Earth

tabs

by  ABELAMIN

save to print version add songbook text version e-mail correct tuner
chordsukulelecavacokeyboardtabbassdrumsharmonicaflute Guitar Pro
close

there isn't a video lesson for this song

chords

In The Pockets

	  		
 

Strumming pattern is pretty easy to pick up 


Intro/Melody: 

D|--X---------|--4---2---0----0---------|--7---4---2--0----0---0---------| 
A|--X---------|--0---0---0----0---------|--0---0---0--0----0---0---------| 
E|--X---------|--2---2---2----3---------|--5---5---5--5----3---3---------| 
D|--X---0-----|--0---0---0----2---0-----|--0---0---0--0----2---2---0-----| 
A|--X---0-----|---------------0---0-----|------------------0---0---0-----| 
D|--X-----0---|---------------0-----0---|------------------0---2-----0---| 


Verse: 

D|--0---4-X-------------0-----|--0---4--2--0----------------| 
A|--0---0-0------0--0---0-0---|--0---0--0--0------0--0---0--| 
E|--2---2-2------3--3---3-3---|--2---2--2--2------3--2---2--| 
D|--0---0-0----2-2--2---2-2---|--0---0--0--0----2-2--3---3--| 
A|--0---0-0----0----0---0-0---|--0---0--0--0----0----0---0--| 
D|-------------0--------0-----|-----------------0--------2--| 
  "On the street..."           "...a-gonna' build..." 

D|--0---4--2--0-------------|--0---4--2--0-----------------------| 
A|--0---0--0--0------0--0---|--0---0--0--0------0--0---0---------| 
E|--2---2--2--2------3--3---|--2---2--2--2------3--2---2---------| 
D|--0---0--0--0----2-2--2---|--0---0--0--0----2-2--3---3---0-0---| 
A|--0---0--0--0----0----0---|--0---0--0--0----0----0---0---0-2---| 
D|-----------------0--------|--0---0--0--0----0--------2---------| 
  "...this is where..."      "Reverend see.." 

Chorus: 

D|-------0---4--2--0---|------------0---4--2--0---------| 
A|--0----0---0--0--0---|----0--0----0---0--0--0---------| 
E|--3----2---2--2--2---|----3--3----2---2--2--2---------| 
D|--0----0---0--0--0---|--2-2--0----0---0--0--0---0-----| 
A|--2----0---0--0--0---|--0----0----0---0--0--0---0-----| 
D|---------------------|--0-------------------------0---| 
  "Deep in the..."       "...see why..." 

D|-------0---4--2--0---|-----------------| 
A|--0----0---0--0--0---|--0--------------| 
E|--3----2---2--2--2---|--3--------------| 
D|--0----0---0--0--0---|--2--------0-----| 
A|--2----0---0--0--0---|--0--------0-----| 
D|---------------------|-------------0---| 
  "And by the..."       "...see why... 

Then play all the following in order: 

Melody 

Verse 

Chorus 

Melody, except the last two chords are this instead: 

D|--------| 
A|--------| 
E|--------| 
D|--0-0---| 
A|--0-2---| 
D|--------| 

Chorus Variation: 
                                                       (lots of alternation 
                                                        between these two     
                                                        chords) 
D|----------------|-------------------|----------------|-----0---| 
A|--0---0-0-------|-0-0---0--0--------|--0---0-0-------|--0--0---| 
E|--3---0-2-------|-0-3---0--2--------|--3---0-2-------|--3--3---| 
D|--0---0-0-------|-0-0---0--0---00---|--0---0-0-------|--0--0---| 
A|--2---2-2-------|-2-2---2--2---02---|--2---2-2-------|--2--2---| 
D|----------------|-------------------|----------------|---------| 
  "Deep on the..." "...watch me..."    "To pray the..." "...see why..." 

Verse 

Chorus