The Tallest Man On Earth

East Virginia

The Tallest Man On Earth

tabs

by  PAULANTUNES

save to print version add songbook text version e-mail correct tuner
chordsukulelecavacokeyboardtabbassdrumsharmonicaflute Guitar Pro
close

there isn't a video lesson for this song

chords

East Virginia

	  		 


d |--------------0----------| 
A#|----0-------------0------| 
G |-------0-------------0---| 
D |---------0-------------0-|   
G |0-------------0----------| 
D |-------------------------| 

Then there are the chords, doing with the prevoius pattern, it's always the same. 


Verse 

d |--------------0----------|--------------0----------|--------------0----------|--------------0----------| 
A#|----0-------------0------|----0-------------0------|----0-------------0------|----5-------------5------| 
G |-------0-------------0---|-------0-------------0---|-------0-------------0---|-------0-------------0---| 
D |---------0-------------0-|---------0-------------0-|---------0-------------0-|---------0-------------0-| 
G |0-------------0----------|0-------------0----------|0-------------0----------|5-------------5----------| 
D |-------------------------|-------------------------|-------------------------|-------------------------| 


d |---------------0-----------|-------------0-----------|--------------0----------|-------------------------| 
A#|------0-------------0------|----0-------------0------|----0-------------0------|----0-------------0------| 
G |---------2-------------2---|-------2-------------2---|-------0-------------0---|-------0-------------0---| 
D |-----------0-------------0-|---------0-------------0-|---------0-------------0-|---------0-------------0-| 
G |---------------------------|-------------------------|0-------------0----------|0------------------------| 
D |----3----------3-----------|3------------3-----------|-------------------------|--------------0h3--------| 


d |--------------0----------| 
A#|----0-------------0------| 
G |-------0-------------0---| 
D |---------0-------------0-|  x2 
G |0-------------0----------| 
D |-------------------------| 


Chorus and Outro 

d |--------------0----------|--------------0----------|--------------0----------|--------------0----------| 
A#|----1-------------1------|----1-------------1------|----1-------------1------|----1-------------1------| 
G |-------2-------------2---|-------2-------------2---|-------0-------------0---|-------0-------------0---| 
D |---------3-------------3-|---------3-------------3-|---------2-------------2-|---------2-------------2-|  
G |0-------------0----------|0-------------0----------|0-------------0----------|0-------------0----------| 
D |-------------------------|-------------------------|-------------------------|-------------------------| 


d |--------------0----------|--------------0----------|--------------0----------|-------------------------| 
A#|----0-------------0------|----0-------------0------|----0-------------0------|----0-------------0------| 
G |-------0-------------0---|-------0-------------0---|-------0-------------0---|-------0-------------0---| 
D |---------1-------------1-|---------1-------------1-|---------0-------------0-|---------0-------------0-|  
G |0-------------0----------|0-------------0----------|0-------------0----------|0------------------------| 
D |-------------------------|-------------------------|-------------------------|--------------0h3--------| 



************************************ 

| h  Hammer-on 
   

************************************ 
		  

See also:

tabs Bo Kaspers Orkester - Kom Och Håll Om Mig tabs The Tallest Man On Earth - East Virginia tabs ABBA - Fernando tabs The Tallest Man On Earth - Stepstone tabs Roxette - Death In The Satanic World tabs The Tallest Man On Earth - In The Pockets
e-chords

Other versions:

tabs The Tallest Man On Earth - East Virginia
auto scroll beats size up size down change color hide chords drawings
tab show chords e-chords YouTube Clip e-chords hide all tabs e-chords go to top tab

share