The Superjesus

When I Tell You In The End

The Superjesus

tabs

save to print version add songbook text version e-mail correct tuner
chordsukulelecavacokeyboardtabbassdrumsharmonicaflute Guitar Pro
close

there isn't a video lesson for this song

chords

When I Tell You In The End

	  		Tabbed By: (Strider) Daniel King  
Email: [email protected]  
 
Standard tuning  
E A D G B e 
 
~-vibrato 
b-bend 
p-pull off 
h-hammer on 
p.m.-palm mute 
r-release hand preventing a ring out 
d- dub-out 
/-Slide 
 
Guitar 1- ACOUSTIC 
Guitar 2- ELECTRIC 
 
Intro 
(~Guitar 1~) 
e|-----0---------3-------------0-----------0-------|  
B|-----0---------3-------------3-----------1-------|  
G|-----0---------0-----0-0-0-0-0-0-0-0-0-0-0-0-0---| 
D|-2-2-2-2-2-2-0-0-0-0-0-0-0-0-0-0-0-2-2-2-2-2-2---| 
A|-2-2-2-2-2-2-2-2-2-2-0-0-5-5-5-5-5-3-3-3-3-3-3---| 
E|-0-0-0-0-0-0-3-3-3-3-----------------------------| 
 
e|-----0---------3-------------0------0------------|  
B|-----0---------3-------------3-----1-------------|  
G|-----0---------0-----0-0-0-0-0----0--------------| 
D|-2-2-2-2-2-2-0-0-0-0-0-0-0-0-0---2---------------| 
A|-2-2-2-2-2-2-2-2-2-2-0-0-5-5-5--3----------------| 
E|-0-0-0-0-0-0-3-3-3-3-----------------------------| 
 
Verse 1 
(~Guitar 1~) 
e|-----0---------3-------------------------0-------|  
B|-----0---------3-------------3-----------1-------|  
G|-----0---------0-----0-0-0-0-0-0-0-0-0-0-0-0-0---|(x3) 
D|-2-2-2-2-2-2-0-0-0-0-0-0-0-0-0-0-0-2-2-2-2-2-2---| 
A|-2-2-2-2-2-2-2-2-2-2-0-0-5-5-5-5-5-3-3-3-3-3-3---| 
E|-0-0-0-0-0-0-3-3-3-3-----------------------------| 
 
e|-----0---------3--------------------0------------|  
B|-----0---------3-----------3-------1-------------|  
G|-----0---------0-----0-0-0-0-0----0--------------| 
D|-2-2-2-2-2-2-0-0-0-0-0-0-0-0-0---2---------------| 
A|-2-2-2-2-2-2-2-2-2-2-0-0-5-5-5--3----------------| 
E|-0-0-0-0-0-0-3-3-3-3-----------------------------| 
I tried to tell you yesterday 
No one seems to hear a word I say 
So come on in and show us how 
Take the best we're taking from you now 
 
Pre-Chorus 
e|-----------------------------0---|  
B|-1-1-1-1-1-1-1-1-1-1-1-1----1----|  
G|-0-0-0-0-0-0-0-0-0-0-0-0---0-----| 
D|-2-2-2-2-2-2-2-2-2-2-2-2--2------| 
A|-3-3-3-3-3-3-3-3-3-3-3-3-3-------| 
E|---------------------------------| 
 
e|-----0---------3---------0---------3-------|  
B|-----0---------3---------0---------3-------|  
G|-----0---------0---------0---------0-------|(x3) 
D|-2-2-2-2-2-2-0-0-0-0-2-2-2-2-2-2-0-0-0-0---| 
A|-2-2-2-2-2-2-2-2-2-2-2-2-2-2-2-2-2-2-2-2---| 
E|-0-0-0-0-0-0-3-3-3-3-0-0-0-0-0-0-3-3-3-3---| 
 
e|-----------------------------0---|  
B|-1-1-1-1-1-1-1-1-1-1-1-1----1----|  
G|-0-0-0-0-0-0-0-0-0-0-0-0---0-----| 
D|-2-2-2-2-2-2-2-2-2-2-2-2--2------| 
A|-3-3-3-3-3-3-3-3-3-3-3-3-3-------| 
E|---------------------------------| 
All in time, so it seems 
Take what's mine 
 
Chorus 
(Guitar 1 & Guitar 2) 
e|----0---------3-----0--0--0-0-0-0-0---|  
B|----0---------3-----3--3--3-3-4-4-4---|  
G|----0---------0-0-0-0--0--0-0-0-0-0---|(x3) 
D|-2--2-2-2-0-0-0-0-0-0--0--0-0-0-0-0---| 
A|-2--2-2-2-2-2-2-0-0-5--5--5-5-6-6-6---| 
E|-0--0-0-0-3-3-3-----------------------| 
 
e|----0---------3-----0--0--0-0-----0---|  
B|----0---------3-----3--3--3-3----4----|  
G|----0---------0-0-0-0--0--0-0---0-----| 
D|-2--2-2-2-0-0-0-0-0-0--0--0-0--0------| 
A|-2--2-2-2-2-2-2-0-0-5--5--5-5-6-------| 
E|-0--0-0-0-3-3-3-----------------------| 
Would you say it's just survival 
All the ties that you defend 
Anymore and you'll be learning 
When I tell you in the end 
 
Pre-Verse (As with Intro) 
 
Verse 2 (Guitar 1 as with Verse 1) 
 
(~Guitar 2~) 
e|----0---------3------0-0---------0-------|  
B|----0---------3------3-3---------1-------|  
G|----0---------0--0-0-0-0-0-0-0-0-0-0-0---|(x3) 
D|-2--2-2-2-0-0-0--0-0-0-0-0-0-2-2-2-2-2---| 
A|-2--2-2-2-2-2-2--0-0-5-5-5-5-3-3-3-3-3---| 
E|-0--0-0-0-3-3-3--------------------------| 
 
e|----0---------3------0-0---------0-------|  
B|----0---------3------3-3--------4--------|  
G|----0---------0--0-0-0-0-0-0---0---------|  
D|-2--2-2-2-0-0-0--0-0-0-0-0-0--0----------| 
A|-2--2-2-2-2-2-2--0-0-5-5-5-5-6-----------| 
E|-0--0-0-0-3-3-3--------------------------| 
Now it's more than you could take 
Counter action lingers in your wake 
A lesson's an authority 
Make it up to you and up to me 
 
Chorus (As with Chorus) 
Would you say it's just survival 
All the ties that you defend 
Anymore and you'll be learning 
When I tell you in the end 
 
Interlude 
(~Guitar 1~) 
e|-------0---------3-------|  
B|-------0---------3-------|  
G|-------0---------0-------|(x6) 
D|-2-2-2-2-2-2-0-0-0-0-0---| 
A|-2-2-2-2-2-2-2-2-2-2-2---| 
E|-0-0-0-0-0-0-3-3-3-3-3---| 
Ooh, ooh, ooh... 
 
Chorus (As with Chorus) 
Would you say it's just survival 
All the ties that you defend 
Anymore and you'll be learning 
When I tell you in the end 
 
Would you say it's just survival 
All the ties that you defend 
Anymore and you'll be learning 
When I tell you in the end 
 
Outro 
e|-------0---------3-----------------0----------0---|  
B|-------0---------3-----------------0---------0----|  
G|-------0---------0-----------------0--------0-----| 
D|-2-2-2-2-2-2-0-0-0-0-0-(x11)-2-2-2-2-2-2---2------| 
A|-2-2-2-2-2-2-2-2-2-2-2-------2-2-2-2-2-2--2-------| 
E|-0-0-0-0-0-0-3-3-3-3-3-------0-0-0-0-0-0-0--------| 
Ooh, ooh, ooh...  
 

		  

Full key step upFull key step up
Half key step upHalf key step up
Half key step downHalf key step down
Full key step downFull key step down
hide glossary

See also:

tabs Powderfinger - Love Your Way tabs Midnight Oil - Hercules tabs John Butler Trio - Ocean tabs Thirsty Merc - Someday, Someday tabs Lee Kernaghan - High Country Solo tabs The Skyhooks - Living In The 70s
e-chords

Other versions:

tabs The Superjesus - When I Tell You In The End
auto scroll beats size up size down change color hide chords drawings
tab show chords e-chords YouTube Clip e-chords hide all tabs e-chords go to top tab

share