The Stupid Stupid Henchmen

Running Through The Corporatio

The Stupid Stupid Henchmen

tabs

by  VICTBORGES

save to print version add songbook text version e-mail correct tuner
chordsukulelecavacokeyboardtabbassdrumsharmonicaflute Guitar Pro
close

there isn't a video lesson for this song

chords

Running Through The Corporatio

	  		

Tuning: motherfuckin standard! 
    Intro main song thingy 
e|--5--6--5--6--5--3--1------------------------------------------------------| 
B|--6--6--5--6--5--3--1------------------------------------------------------| 
G|--7-----6-----6--4--2------------------------------------------------------| 
D|--7-----7-----7--5--3------------------------------------------------------| 
A|--5-----7-----7--5--3------------------------------------------------------| 
E|--5-----5-----5--3--1------------------------------------------------------| 
Intro lead guitar tremelo picking and shit 
e|-----------------------------------------------------------------------------| 
B|--10-10-10-10-11-11-10-10-11-11-13-13-11-11-10h11p10-11-11-10-10-10h11p10----| 
G|-----------------------------------------------------------------------------| 
D|-----------------------------------------------------------------------------| 
A|-----------------------------------------------------------------------------| 
E|-----------------------------------------------------------------------------| 

e|--------------------------------------------------------------------------------| 
B|-----8-8-6-6-8-8----------------------------------------------------------------| 
G|--------------------------------------------------------------------------------| 
D|--------------------------------------------------------------------------------| 
A|--------------------------------------------------------------------------------| 
E|--------------------------------------------------------------------------------| 

 
		  

See also:

tabs Deep Purple - Strange kind of woman tabs Deep Purple - Smoke On The Water tabs Deep Purple - Time To Kill tabs Albert Hammond Jr - Gfc tabs Deep Purple - Soldier Of Fortune tabs Ira! - Nucleo De Base
e-chords

Other versions:

tabs The Stupid Stupid Henchmen - Running Through The Corporatio
auto scroll beats size up size down change color hide chords drawings
tab show chords e-chords YouTube Clip e-chords hide all tabs e-chords go to top tab

share