The Strokes

Under Control (ver. 3)

The Strokes

tabs Expert expert

save to print version add songbook text version e-mail correct tuner
chordsukulelecavacokeyboardtabbassdrumsharmonicaflute Guitar Pro
close

there isn't a video lesson for this song

chords

Under Control (ver. 3)

	  		The Strokes - Under Control 
 
Listen to song for strumming 
 
Guitar 1 - Albert 
 
E--9----11---9-------13--14----13---14--13--11-- 
B--9----11---9-------13--14----13---14--13--11-- 
G--10---11---10------13--15----13---15--13--11--   Part 1 
D-----------------------------------------------    
A----------------------------------------------- 
E----------------------------------------------- 
 
 
 
E--4---6---6---9----------------- 
B--4---4---6---6----------------- 
G--5---5---6---6-----------------   Part 2 
D-------------------------------- 
A-------------------------------- 
E-------------------------------- 
 
 
 
E--8---6-----13--11---9---------9--------9-----11--13--9-- 
B--9---7-----13--11---9---------11-------11----11--13--9-- 
G--8---6-----13--11---10--------11---11--11----11--13--10   Solo 
D------------------------------------11------------------ 
A-------------------------------------------------------- 
E--------------------------------------------------------- 
 
 
E--13--11--14--13--11--9--------- 
B--13--11--14--13--11--9--------- 
G--13--11--15--13--11--10--------   Outro 
D-------------------------------- 
A-------------------------------- 
E-------------------------------- 
 
Part 1 4x 
Part 2 4x 
Part 1 4x 
Solo 2x 
Part 2 4x 
Part 1 4x 
Outro 
 
 
Guitar 2 - Nick 
 
E--4--6--4-----8---9-----8---9----8---6---------- 
B--6--7--6-----9---11----9---11---9---7---------- 
G--6--8--6-----10--11----10--11---10--8----------     Part 1 
D------------------------------------------------ 
A------------------------------------------------ 
E------------------------------------------------ 
 
 
E--4---6---4------------- 
B--4---6---6------------- 
G--5---6---6-------------   Part 2 
D------------------------ 
A------------------------ 
E------------------------ 
 
 
E---6---------4------- 
B---7---------6------- 
G---6---------6------- Solo 
D--------------------- 
A--------------------- 
E--------------------- 
 
 
E--8----6----9----8----6---4--------------------- 
B--9----7----11---9----7---6--------------------- 
G--10---8----11---10---8---6---------------------   Outro 
D------------------------------------------------ 
A------------------------------------------------ 
E------------------------------------------------ 
 
Part 1 4x 
Part 2 4x 
Part 1 4x 
Solo 2x 
Part 2 4x 
Part 1 4x 
Outro 
 
The Strumming should be easy to figure out 
		  

See also:

tabs Chuck Berry - Johnny B. Goode tabs The Offspring - Come Out and Play tabs Creed - With arms wide open tabs Jack Johnson - Do You Remember tabs Guns N' Roses - November Rain tabs Bon Jovi - Always
e-chords

Other versions:

tabs The Strokes - Under Control tabs The Internet - Under Control tabs The Strokes - Under Control (ver. 2) tabs The Strokes - Under Control (ver. 3)
auto scroll beats size up size down change color hide chords drawings
tab show chords e-chords YouTube Clip e-chords hide all tabs e-chords go to top tab

share