The Story So Far

home > The Story So Far

Smile Tab

The Story So Far

Difficulty: nolevelnolevel

by carlluz

tuner correct add songbook print version text version save to e-mail
chordsukulelecavacokeyboardtabbassdrumsharmonicsflute Guitar Pro
chords

Smile

  		Intro (let notes ring out): 
e|-------------------------------0-0-0-0--0-0-0-0--| 
B|----7---5h7~-------7---5h7~----5-5-3-7--5-5-3-7--| 
G|--7---7----------7---7---------------------------| 
D|-------------------------------------------------| 
A|-------------------------------------------------| 
E|-------------------------------------------------| 

verse 1 (lead): 
e|--0-0-0--0-0-0-0--0--0-0-0-0--0-0-0-0--0-0-0--0-0-0-0--0--0-0-0-0--0-0------| 
B|--3-3-3-10-7-7-7-10--5-5-3-7--5-5-3-7--3-3-3-10-7-7-7-10--5-5-7-3--5-5-5v~--| 
G|----------------------------------------------------------------------------| 
D|----------------------------------------------------------------------------| 
A|----------------------------------------------------------------------------| 
E|----------------------------------------------------------------------------| 

(rhythm) 
e|---------------------------------------------------| 
B|---------------------------------------------------| 
G|-------------------------------------------all-x2--| 
D|---------7-4-4-4-4-7---------7---------7-----------| 
A|-5-5-5-5-5-2-2-2-2-5-2-2-2-2-5-2-2-2-2-5-----------| 
E|-3-3-3-3-------------0-0-0-0---0-0-0-0-------------| 
   ' '       ' '       ' '       ' ' 

Chorus (lead, let notes ring out): 
e|--------0~-----------0~-----------0~----------------------------| 
B|-----3~----3~-----3~----3~-----3~----3~-----3~--3h5p3~--all-x4--| 
G|--0~-----------0~-----------2~----------------------------------| 
D|-----------------------------------------2~---------------------| 
A|----------------------------------------------------------------| 
E|----------------------------------------------------------------| 

(rhythm) 
e|-------------------------------------------------------------------------------| 
B|-------------------------------------------------------------------------------| 
G|-------------------------------------------------------------------------------| 
D|---------------------------------------------------------------------9-9-7/11--| 
A|--5-5-5-5-xx-5-5-5-5--7-7-7-7--2-2-2-2--5-5-5-5-xx-5-5-5-5--7-7-7-7--7-7-5/9---| 
E|--3-3-3-3-xx-3-3-3-3--5-5-5-5--0-0-0-0--3-3-3-3-xx-3-3-3-3--5-5-5-5------------| 

Repeat intro bit 

Repeat verse 

Repeat Chorus 


Bridge: 
e|-------------------------------------------------------| 
B|----7---5h7-------7---5h7-------7---5h7-------7---5h7--| 
G|--7---7---------7---7---------7---7---------7---7------| 
D|-------------------------------------------------------| 
A|-------------------------------------------------------| 
E|-------------------------------------------------------| 

e|-----------------------------------------0~-----------------------------| 
B|------------------------------------5h7-10~-/12-10-7------------all-x4--| 
G|-----------------------------------------------------7~---6h7~----------| 
D|-----------7-4-4-4--all-x4--then-----------------------7~---------------| 
A|--4/5-5-5--5-2-2-2------------------------------------------------------| 
E|--2/3-3-3---------------------------------------------------------------| 


e|---------------------------------------------------------------------------------------| 
B|---------------------------------------------------------------------------------------| 
G|---------------------------------------------------------------------------------------| 
D|---------------------------------------------------------------------------------------| 
A|--5-5-5-5-xx-5-5-5-5-------------------------------------------------------------------| 
E|--3-3-3-3-xx-3-3-3-3-------------------------------------------------------------------| 

Repeat Chorus 

Outro: 
e|------5~--7-5--------------------------------5~--2-2---5~--| 
B|--5h7---------7------------all-x3-then---5h7---------3-----| 
G|----------------7~----6h7~---------------------------------| 
D|-------------------7~--------------------------------------| 
A|-----------------------------------------------------------| 
E|-----------------------------------------------------------| 


************************************ 

| /   slide up 
| \   slide down 
| h   hammer-on 
| p   pull-off 
| ~   vibrato 
| +   harmonic 
| x   Mute note 
| b   Bend 
| pb  Pre-bend 
| br  Bend release 
| pbr Pre-bend release 
| brb Bend release bend 

************************************ 
	  

Search Paypal
auto scroll beats size up size down change color hide chords drawings
tab show chords e-chords YouTube Clip e-chords hide all tabs e-chords go to top tab