The Stone Roses

Sugar Spun Sister

The Stone Roses

tabs

by  IAGOVILLAREAL

save to print version add songbook text version e-mail correct tuner
chordsukulelecavacokeyboardtabbassdrumsharmonicaflute Guitar Pro
close

there isn't a video lesson for this song

chords

Sugar Spun Sister

	  		
 

Intro/Verse:  

   G        C         G       C  
e|-X---X-X--X---X-X-|-X---X-X-X-------|  
B|-0---0-0--1---1-1-|-0---0-0-1-------|  
G|-0---0-0--0---0-0-|-0---0-0-0-----0-|   
D|-0---0-0--2---2-2-|-0---0-0-2-0-2---|  
A|-2---2-2--3---3-3-|-2---2-2-3-------|  
E|-3---3-3--X---X-X-|-3---3-3-X---X-X-|  
   1 & 2 &  3 & 4 &   1 & 2 & 3 & 4 &  


Pre-Chorus (Until the sky turns green...)  

   G               Bm             |(sweep)|  
e|-3---3---------------------------2----------------------------------------------|  
B|-3-----3---3------------3/5--------3----5p3h5p3h5p3h5p3h5p3---------------------|  
G|-0-------0---0---2--2/4------4-4-----4-----------------------4-pb(2)p0----------|  
D|-0-----------------------------------------------------------------------2p0----|  
A|-2------------------------------------------------------------------------------|  
E|-3-3----------------------------------------------------------------------------|  


(Every member of Parliament)  

e|---------------------|---2------------------------------------------------------|  
B|--1-X-1-1-1-1-1-1-1--|---3------------------------------------------------------|  
G|--0-0-0-0-0-0-0-0-0--|-2-2----pb(2)p0---------pb(2)p0---------0-----------------|  
D|--2-2-20h22-2-2-20h2-|-0-0------------pb(2)p0---------pb(2)p0-0-----------------|  
A|--3-3-3-3-3-3-3-3-3--|-0--------------------------------------------------------|  
E|---------------------|----------------------------------------------------------|  


(Repeat with minor changes)  
   G               Bm             |(sweep)|  
e|-3---3---------------------------2----------------------------------------------|  
B|-3-----3---3------------3/5--------3----5p3h5p3h5p3-----------------------------|  
G|-0-------0---0---2--2/4------4-4-----4---------------5p4h5p4h5h4---pb(2)p0------|  
D|-0--------------------------------------------------------------------------2p0-|  
A|-2------------------------------------------------------------------------------|  
E|-3-3----------------------------------------------------------------------------|  


    (pick the C chord)  
e|------3---3---3------|----------------------------------------------------------|  
B|--1-X-1-1-1-1-1-1-1--|--8-8-8-8-------8-----------------------------------------|  
G|--0-0-0-0-0-0-0-0-0--|--7-7-7-7-7---7---9p7h9p7h9p7---7-------------------------|  
D|--2-2-20h22-2-2-20h2-|--7-7-7h9---7-----------------9---9-7-5-------------------|  
A|--3-3-3-3-3-3-3-3-3--|----------------------------------------------------------|  
E|---------------------|----------------------------------------------------------|  


Chorus ("It takes all these things")  

   G        C         G       C  
e|-X---X-X--X---X-X-|-X---X-X-X-------|-X---X-X--X---X-X-|-X----------------------|  
B|-0---0-0--1---1-1-|-0---0-0-1-------|-0---0-0--1---1-1-|-0----------------------|  
G|-0---0-0--0---0-0-|-0---0-0-0-----0-|-0---0-0--0---0-0-|-0-2/4-2-0pb2p0---0-----|  
D|-0---0-0--2---2-2-|-0---0-0-2-0-2---|-0---0-0--2---2-2-|-0--------------2-------|  
A|-2---2-2--3---3-3-|-2---2-2-3-------|-2---2-2--3---3-3-|-2----------------------|  
E|-3---3-3--X---X-X-|-3---3-3-X---X-X-|-3---3-3--X---X-X-|-3----------------------|  
   1 & 2 &  3 & 4 &   1 & 2 & 3 & 4 &   1 & 2 &  3 & 4 &   1 & 2 & 3  &   4 &  

     
('Til my Sugar Spun sister...)  

   C        F         C        F         G        C         G  
e|-X---X-X--X---X-X-|-X---X-X--X---X-X-|-X---X-X--X---X-X-|-X----------------|  
B|-1---1-1--1---1-1-|-1---1-1--1---1-1-|-0---0-0--1---1-1-|-0----------------|  
G|-0---0-0--2---2-2-|-0---0-0--2---2-2-|-0---0-0--0---0-0-|-0-2-2b(4)p0---0--|   
D|-2---2-2--3---3-3-|-2---2-2--3---3-3-|-0---0-0--2---2-2-|-0-----------2----|  
A|-3---3-3--3---3-3-|-3---3-3--3---3-3-|-2---2-2--3---3-3-|-2----------------|  
E|-X---X_X--X---X-X-|-X---X_X--X---X-X-|-3---3-3--X---X-X-|-3----------------|  
   1 & 2 &  3 & 4 &   1 & 2 &  3 & 4 &   1 & 2 &  3 & 4 &   1 & 2 &  3 & 4 &   

End of Chorus:  

   D                                 C  
e|-2-2-2-2-3-3-3-2-2-2-2-2-2-2-2-2-|-0--0--0--0-00--------------|  
B|-3-3-3-3-3-3-3-3-3-3-3-3-3-3-3-3-|-1--1--1--1-11--------------|  
G|-2-2-2-2-2-2-2-2-2-2-2-2-2-2-2-2-|-0--0--0--0-00--------------|  
D|-0-0-0-0-0-0-0-0-0-0-0-0-0-0-0-0-|-2--2--2--2-22--------------|  
A|---------------------------------|-3--3--3--3-33---3--2--0----|  
E|---------------------------------|----------------------------|  


Second verse, palm-muted this time:  

PM------------------------------------|  
     
G        C         G       C  
e|-X---X-X--X---X-X-|-X---X-X-X-------|  
B|-0---0-0--1---1-1-|-0---0-0-1-------|  
G|-0---0-0--0---0-0-|-0---0-0-0-----0-|   
D|-0---0-0--2---2-2-|-0---0-0-2-0-2---| x6  
A|-2---2-2--3---3-3-|-2---2-2-3-------|  
E|-3---3-3--X---X-X-|-3---3-3-X---X-X-|  
   1 & 2 &  3 & 4 &   1 & 2 & 3 & 4 &  


("My hands...   are stuck to my jeans")  

   let ring ---|  
e|-3-------------3-3-3-2-0------0---0---0------|  
B|-0-------------3-3-3-3---3-----3---3---3-----|  
G|-0-------------2-2-2-2---2p0----0---0---0----|  
D|-0-------------0-0-0-0-----------------------|  
A|-2-------------------------------------------|  
E|-3-------------------------------------------|  


PM------------------------------------|  

G        C         G       C  
e|-X---X-X--X---X-X-|-X---X-X-X-------|  
B|-0---0-0--1---1-1-|-0---0-0-1-------|  
G|-0---0-0--0---0-0-|-0---0-0-0-----0-|   
D|-0---0-0--2---2-2-|-0---0-0-2-0-2---| x2  
A|-2---2-2--3---3-3-|-2---2-2-3-------|  
E|-3---3-3--X---X-X-|-3---3-3-X---X-X-|  
   1 & 2 &  3 & 4 &   1 & 2 & 3 & 4 &  


Back to Pre-Chorus (with the changed repeat too):  

   G               Bm           |(sweep)|  
e|-3---3---------------------------2----------------------------------------------|  
B|-3-----3---3------------3/5--------3----5p3h5p3h5p3h5p3h5p3---------------------|  
G|-0-------0---0---2--2/4------4-4-----4-----------------------4-pb(2)p0----------|  
D|-0-----------------------------------------------------------------------2p0----|  
A|-2------------------------------------------------------------------------------|  
E|-3-3----------------------------------------------------------------------------|  


"Every member of Parliament"  

e|---------------------|---2------------------------------------------------------|  
B|--1-X-1-1-1-1-1-1-1--|---3------------------------------------------------------|  
G|--0-0-0-0-0-0-0-0-0--|-2-2----pb(2)p0---------pb(2)p0---------0-----------------|  
D|--2-2-20h22-2-2-20h2-|-0-0------------pb(2)p0---------pb(2)p0-0-----------------|  
A|--3-3-3-3-3-3-3-3-3--|-0--------------------------------------------------------|  
E|---------------------|----------------------------------------------------------|  


(Repeat with minor changes)  
   G               Bm          |(sweep)|  
e|-3---3---------------------------2----------------------------------------------|  
B|-3-----3---3------------3/5--------3----5p3h5p3h5p3-----------------------------|  
G|-0-------0---0---2--2/4------4-4-----4---------------5p4h5p4h5p4---pb(2)p0------|  
D|-0--------------------------------------------------------------------------2p0-|  
A|-2------------------------------------------------------------------------------|  
E|-3-3----------------------------------------------------------------------------|  


    (pick the C chord)  
e|------3---3---3------|----------------------------------------------------------|  
B|--1-X-1-1-1-1-1-1-1--|--8-8-8-8-------8-----------------------------------------|  
G|--0-0-0-0-0-0-0-0-0--|--7-7-7-7-7---7---9p7h9p7h9p7---7-------------------------|  
D|--2-2-20h22-2-2-20h2-|--7-7-7h9---7-----------------9---9-7-5-------------------|  
A|--3-3-3-3-3-3-3-3-3--|----------------------------------------------------------|  
E|---------------------|----------------------------------------------------------|  


Chorus ("It takes all these things")  

   G        C         G       C         G        C         G  
e|-X---X-X--X---X-X-|-X---X-X-X-------|-X---X-X--X---X-X-|-X----------------------|  
B|-0---0-0--1---1-1-|-0---0-0-1-------|-0---0-0--1---1-1-|-0----------------------|  
G|-0---0-0--0---0-0-|-0---0-0-0-----0-|-0---0-0--0---0-0-|-0-2/4-2-0pb2p0---0-----|  
D|-0---0-0--2---2-2-|-0---0-0-2-0-2---|-0---0-0--2---2-2-|-0--------------2-------|  
A|-2---2-2--3---3-3-|-2---2-2-3-------|-2---2-2--3---3-3-|-2----------------------|  
E|-3---3-3--X---X-X-|-3---3-3-X---X-X-|-3---3-3--X---X-X-|-3----------------------|  
   1 & 2 &  3 & 4 &   1 & 2 & 3 & 4 &   1 & 2 &  3 & 4 &   1 & 2 & 3  &   4 &  


     
"'til my Sugar Spun sister"  


   C        F         C        F         G        C         G  
e|-X---X-X--X---X-X-|-X---X-X--X---X-X-|-X---X-X--X---X-X-|-X----------------|  
B|-1---1-1--1---1-1-|-1---1-1--1---1-1-|-0---0-0--1---1-1-|-0----------------|  
G|-0---0-0--2---2-2-|-0---0-0--2---2-2-|-0---0-0--0---0-0-|-0-2-2b(4)p0---0--|   
D|-2---2-2--3---3-3-|-2---2-2--3---3-3-|-0---0-0--2---2-2-|-0-----------2----|  
A|-3---3-3--3---3-3-|-3---3-3--3---3-3-|-2---2-2--3---3-3-|-2----------------|  
E|-X---X_X--X---X-X-|-X---X_X--X---X-X-|-3---3-3--X---X-X-|-3----------------|  
   1 & 2 &  3 & 4 &   1 & 2 &  3 & 4 &   1 & 2 &  3 & 4 &   1 & 2 &  3 & 4 &   



End of Chorus:  


   D          C#   C       C# D                C#   C  
e|-2-2-2-2-2---1---0 0---0-1--2---|-2-2-2-2-2---1---0-0-----------------|  
B|-3-3-3-3-3---2---1--1--1-2--3---|-3-3-3-3-3---2---1--1----------------|  
G|-2-2-2-2-2---1---0---0-0-1--2---|-2-2-2-2-2---1---0---0--0h2p0--------|  
D|-------------------------------|-------------------------------0h2p0--|  
A|-------------------------------|--------------------------------------|  
E|-------------------------------|--------------------------------------|  

G        C         G       C  
e|-X---X-X--X---X-X-|-X---X-X-X-------|  
B|-0---0-0--1---1-1-|-0---0-0-1-------|  
G|-0---0-0--0---0-0-|-0---0-0-0-----0-|   
D|-0---0-0--2---2-2-|-0---0-0-2-0-2---| repeat as needed, end on G.  
A|-2---2-2--3---3-3-|-2---2-2-3-------|  
E|-3---3-3--X---X-X-|-3---3-3-X---X-X-|  
   1 & 2 &  3 & 4 &   1 & 2 & 3 & 4 & 
		  

Full key step upFull key step up
Half key step upHalf key step up
Half key step downHalf key step down
Full key step downFull key step down
auto scroll beats size up size down change color hide chords drawings
tab show chords e-chords YouTube Clip e-chords hide all tabs e-chords go to top tab

share