The Stone Poneys

Back On The Street Again

The Stone Poneys

tabs

by  JESSGOMES

save to print version add songbook text version e-mail correct tuner
chordsukulelecavacokeyboardtabbassdrumsharmonicaflute Guitar Pro
close

there isn't a video lesson for this song

chords

Back On The Street Again

	  		Tuning: EADG 

G|7-----------------------------------------------------------6---| 
D|------------------------4-------5-------5---5---7-------7-------| 
A|--------5-------7-----------------------------------------------| 
E|----------------------------------------------------------------| 

0:05 

G|7-------------------------------------------6---7---------------| 
D|----------------5-------5-------7-------7-----------------------| 
A|------------5-----------------------------------------------5---| 
E|----------------------------------------------------------------| 

G|----------------------------------------------------------------| 
D|5-------5-------7-----------7-------------------5-------5-------| 
A|--------------------------------5-----------5-------------------| 
E|----------------------------------------------------------------| 

G|----------------------------------------------------------------| 
D|7-----------7-------------------5-----------5---7---------------| 
A|----------------5-------5---------------------------------------| 
E|--------------------------------------------------------5-------| 

G|----------------------------------------------------------------| 
D|----------------5-------5-------7-----------------------7-------| 
A|5-----------5-----------------------------------5---------------| 
E|--------------------------------------------5-------------------| 

G|----------------------------------------------------------------| 
D|------------------------4-------5-----------5---7---------------| 
A|5-----------5---5-----------------------------------------------| 
E|--------------------------------------------------------5-------| 

0:28 

G|----------------------------------------------------------------| 
D|----------------5-----------5---7-----------7-------------------| 
A|5-----------5-----------------------------------5-------5-------| 
E|----------------------------------------------------------------| 

G|----------------------------------------------------------------| 
D|5-----------5---7---------------------------4---5-------5-------| 
A|--------------------------------5-------------------------------| 
E|------------------------5---------------------------------------| 

G|----------------------------------------------------------------| 
D|7-----------------------4-------5---5-------5---7---------------| 
A|----------------5-----------------------------------------------| 
E|------------5-------------------------------------------5-------| 

G|----------------------------------------------------------------| 
D|----------------5-----------5---7-----------7---7-------7-------| 
A|5-----------5---------------------------------------------------| 
E|----------------------------------------------------------------| 

G|----------------------------------------------------------------| 
D|--------------------------------7-----------7---7-------7-------| 
A|5-----------5---5-------5---------------------------------------| 
E|----------------------------------------------------------------| 

0:51 

G|----------------------------------------------------------------| 
D|------------------------------------------------------------4---| 
A|7-----------7---7-------7-------------------------------5-------| 
E|--------------------------------7-----------7---7---------------| 

G|------------------------------------------------4---------------| 
D|7---------------7-------7-------------------------------6-------| 
A|------------7-------------------7-----------7---------------7---| 
E|----------------------------------------------------------------| 

G|----------------------------------------9---7---4---------------| 
D|--------------------7---4-------5-------------------5-----------| 
A|5---------------5-----------5---------------------------7-------| 
E|------------------------------------------------------------7---| 

G|----------------------------------------------------------------| 
D|--------7---------------7---7---5-----------5---7-------7-------| 
A|----------------------------------------------------------------| 
E|5---------------5-----------------------------------------------| 

1:09 

G|----------------------------------------------------------------| 
D|------------------------5-------7-----------7-------------------| 
A|5-----------5---5-------------------------------5-----------5---| 
E|----------------------------------------------------------------| 

G|----------------------------6---7---------------| 
D|5-----------5---7-------------------------------| 
A|--------------------------------------------5---| 
E|------------------------------------------------| 

G|--------4---------------6-------7---------------| 
D|5-----------5---7-------------------------------| x2 
A|--------------------------------------------5---| 
E|------------------------------------------------| 

G|--------4---------------6-------------------------------------------------------| 
D|5-----------5---7---------------7-----------7---5-------5-------5-------5-------| 
A|--------------------------------------------------------------------------------| 
E|--------------------------------------------------------------------------------| 

1:30 

G|--------------------------------------------6---7---------------| 
D|----------------5-------5-------7-------------------------------| 
A|5-----------5-------------------------------------------5-------| 
E|----------------------------------------------------------------| 

G|--------4-------------------6---| 
D|5-----------5---7---------------| 
A|--------------------------------| 
E|--------------------------------| 

Until fadeout. 

G|7-----------------------4-------------------6---| 
D|----------------5-----------5---7---7-----------| 
A|--------5---------------------------------------| 
E|------------------------------------------------| 
		  

See also:

tabs Deep Purple - Strange kind of woman tabs Deep Purple - Smoke On The Water tabs Deep Purple - Time To Kill tabs Albert Hammond Jr - Gfc tabs Deep Purple - Soldier Of Fortune tabs Ira! - Nucleo De Base
e-chords

Other versions:

tabs The Stone Poneys - Back On The Street Again
auto scroll beats size up size down change color hide chords drawings
tab show chords e-chords YouTube Clip e-chords hide all tabs e-chords go to top tab

share