The Spin Wires

Girls Like You

The Spin Wires

tabs

by  EDSOOLIVEIRA

save to print version add songbook text version e-mail correct tuner
chordsukulelecavacokeyboardtabbassdrumsharmonicaflute Guitar Pro
close

there isn't a video lesson for this song

chords

Girls Like You

	  		



      Q    Q    E  E  E  E     Q    E  Q    E  Q                                     4x 
D#||------------------------|-------------------------||-------|-------| 
A#||------------------------|-------------------------||-------|-------| 
F#||------------------------|-----------------------*-||-------|-------| 
C#||--7----7-------7--7-----|--7-------7----7--5----*-||-------|-------| 
G#||--7----7----0--7--7--0--|--7----0--7----5--3------||-------|-------| 
D#||--5----5----0--5--5--0--|--5----0--5--------------||-------|-------| 
  
  
  Q    Q    E  E  E  E     Q    E  Q    E  Q                      
------------------------|-----------------------|-------|-------| 
------------------------|-----------------------|-------|-------| 
------------------------|-----------------------|-------|-------| 
--7----7-------7--7-----|--7-------7----7--5----|-------|-------| 
--7----7----0--7--7--0--|--7----0--7----5--3----|-------|-------| 
--5----5----0--5--5--0--|--5----0--5------------|-------|-------| 
  
  
  Q    Q    E  E  E  E     Q    E  Q    E  Q                      
------------------------|-----------------------|-------|-------| 
------------------------|-----------------------|-------|-------| 
------------------------|-----------------------|-------|-------| 
--7----7-------7--7-----|--7-------7----7--5----|-------|-------| 
--7----7----0--7--7--0--|--7----0--7----5--3----|-------|-------| 
--5----5----0--5--5--0--|--5----0--5------------|-------|-------| 
  
  
  Q    Q    E  E  E  E     Q    E  Q    E  Q                              
------------------------|-----------------------|-------|-------|-------| 
------------------------|-----------------------|-------|-------|-------| 
------------------------|-----------------------|-------|-------|-------| 
--7----7-------7--7-----|--7-------7----7--5----|-------|-------|-------| 
--7----7----0--7--7--0--|--7----0--7----5--3----|-------|-------|-------| 
--5----5----0--5--5--0--|--5----0--5------------|-------|-------|-------| 
  
  
          E  E  E  E  E  E  E  E     E  E  E  E  E  E  E  E    
-------|--------------------------|--------------------------| 
-------|--------------------------|--------------------------| 
-------|--------------------------|--------------------------| 
-------|--7--7--7--7--7--7--7--7--|--7--7--7--7--7--7--7--7--| 
-------|--5--5--5--5--5--5--5--5--|--5--5--5--5--5--5--5--5--| 
-------|--------------------------|--------------------------| 
  
  
  E  E  E  E  E  E  E  E      E   E   E   E   E   E   E   E    
--------------------------|----------------------------------| 
--------------------------|----------------------------------| 
--------------------------|----------------------------------| 
--9--9--9--9--9--9--9--9--|--12--12--12--12--12--12--12--12--| 
--7--7--7--7--7--7--7--7--|--10--10--10--10--10--10--10--10--| 
--------------------------|----------------------------------| 
  
  
  E  E  E  E  E  E  E  E     E  E  E  Q    E  E  E    
--5--5-----5-----5-----5--|-------------------------| 
--5--5-----5-----5-----5--|-----------5-------------| 
--6--6-----6-----6-----6--|-----5----------5-----5--| 
--7--7-----7-----7-----7--|--------5----------5-----| 
--7--7-----7-----7-----7--|--3----------------------| 
--5--5-----5-----5-----5--|-------------------------| 
  
  
  E  E  E  E  E  E  E  E     E  E  E  Q    E  E  E    
--3--3-----3-----3-----3--|-------------------------| 
--3--3-----3-----3-----3--|-----------7-------------| 
--4--4-----4-----4-----4--|-----7----------7-----7--| 
--5--5-----5-----5-----5--|--------7----------7-----| 
--5--5-----5-----5-----5--|--5----------------------| 
--3--3-----3-----3-----3--|-------------------------| 
  
  
  E  E  E  E  E  E  E  E     E  E  E  Q    E  E  E    
--5--5-----5-----5-----5--|-------------------------| 
--5--5-----5-----5-----5--|-----------5-------------| 
--6--6-----6-----6-----6--|-----5----------5-----5--| 
--7--7-----7-----7-----7--|--------5----------5-----| 
--7--7-----7-----7-----7--|--3----------------------| 
--5--5-----5-----5-----5--|-------------------------| 
  
  
  E  E  E  E  E  E  E  E     E  E  E  Q    E  E  E    
--3--3-----3-----3-----3--|-------------------------| 
--3--3-----3-----3-----3--|-----------7-------------| 
--4--4-----4-----4-----4--|-----7----------7-----7--| 
--5--5-----5-----5-----5--|--------7----------7-----| 
--5--5-----5-----5-----5--|--5----------------------| 
--3--3-----3-----3-----3--|-------------------------| 
  
  
  E  E  E  Q    E  E  E                 Q    Q    E  E  E  E    
-------------------------|-----|-----|------------------------| 
-----------7-------------|-----|-----|------------------------| 
-----7----------7-----7--|-----|-----|------------------------| 
--------7----------7-----|-----|-----|--7----7-------7--7-----| 
--5----------------------|-----|-----|--7----7----0--7--7--0--| 
-------------------------|-----|-----|--5----5----0--5--5--0--| 
  
  
  Q    E  Q    E  Q                       Q    Q    E  E  E  E    
-----------------------|-------|-------|------------------------| 
-----------------------|-------|-------|------------------------| 
-----------------------|-------|-------|------------------------| 
--7-------7----7--5----|-------|-------|--7----7-------7--7-----| 
--7----0--7----5--3----|-------|-------|--7----7----0--7--7--0--| 
--5----0--5------------|-------|-------|--5----5----0--5--5--0--| 
  
  
  Q    E  Q    E  Q       E  E  E  E  E  E  E  E    
-----------------------|--------------------------| 
-----------------------|--------------------------| 
-----------------------|--------------------------| 
--7-------7----7--5----|--7--7--7--7--7--7--7--7--| 
--7----0--7----5--3----|--5--5--5--5--5--5--5--5--| 
--5----0--5------------|--------------------------| 
  
  
  E  E  E  E  E  E  E  E     E  E  E  E  E  E  E  E    
--------------------------|--------------------------| 
--------------------------|--------------------------| 
--------------------------|--------------------------| 
--7--7--7--7--7--7--7--7--|--9--9--9--9--9--9--9--9--| 
--5--5--5--5--5--5--5--5--|--7--7--7--7--7--7--7--7--| 
--------------------------|--------------------------| 
  
  
   E   E   E   E   E   E   E   E     E  E  E  E  E  E  E  E    
----------------------------------|--5--5-----5-----5-----5--| 
----------------------------------|--5--5-----5-----5-----5--| 
----------------------------------|--6--6-----6-----6-----6--| 
--12--12--12--12--12--12--12--12--|--7--7-----7-----7-----7--| 
--10--10--10--10--10--10--10--10--|--7--7-----7-----7-----7--| 
----------------------------------|--5--5-----5-----5-----5--| 
  
  
  E  E  E  Q    E  E  E     E  E  E  E  E  E  E  E    
-------------------------|--3--3-----3-----3-----3--| 
-----------5-------------|--3--3-----3-----3-----3--| 
-----5----------5-----5--|--4--4-----4-----4-----4--| 
--------5----------5-----|--5--5-----5-----5-----5--| 
--3----------------------|--5--5-----5-----5-----5--| 
-------------------------|--3--3-----3-----3-----3--| 
  
  
  E  E  E  Q    E  E  E     E  E  E  E  E  E  E  E    
-------------------------|--5--5-----5-----5-----5--| 
-----------7-------------|--5--5-----5-----5-----5--| 
-----7----------7-----7--|--6--6-----6-----6-----6--| 
--------7----------7-----|--7--7-----7-----7-----7--| 
--5----------------------|--7--7-----7-----7-----7--| 
-------------------------|--5--5-----5-----5-----5--| 
  
  
  E  E  E  Q    E  E  E     E  E  E  E  E  E  E  E    
-------------------------|--3--3-----3-----3-----3--| 
-----------5-------------|--3--3-----3-----3-----3--| 
-----5----------5-----5--|--4--4-----4-----4-----4--| 
--------5----------5-----|--5--5-----5-----5-----5--| 
--3----------------------|--5--5-----5-----5-----5--| 
-------------------------|--3--3-----3-----3-----3--| 
  
  
  E  E  E  Q    E  E  E     E  E  E  Q    E  E  E    
-------------------------|-------------------------| 
-----------7-------------|-----------7-------------| 
-----7----------7-----7--|-----7----------7-----7--| 
--------7----------7-----|--------7----------7-----| 
--5----------------------|--5----------------------| 
-------------------------|-------------------------| 
  
  
  Q    E  Q    E  Q       E  Q    E  Q    Q       Q    E  Q    E  Q      
-----------------------|-----------------------|-----------------------| 
-----------------------|-----------------------|-----------------------| 
-----------------------|-----------------------|-----------------------| 
--7-------7-------7----|-----7-------5----5----|--7-------7-------7----| 
--7----x--7----x--7----|--x--7----x--3----3----|--7----x--7----x--7----| 
--5-------5-------5----|-----5-----------------|--5-------5-------5----| 
  
  
  E  Q    E  Q    Q       Q    E  Q    E  Q       E  Q    E  Q    Q      
-----------------------|-----------------------|-----------------------| 
-----------------------|-----------------------|-----------------------| 
-----------------------|-----------------------|-----------------------| 
-----7-----------------|--7-------7-------7----|-----7-------5----5----| 
--x--7----x--5----5----|--7----x--7----x--7----|--x--7----x--3----3----| 
-----5-------3----3----|--5-------5-------5----|-----5-----------------| 
  
  
  Q    E  Q    E  Q       E  Q    E  Q    Q       E  E  E  E  E  E  E  E    
-----------------------|-----------------------|--------------------------| 
-----------------------|-----------------------|--------------------------| 
-----------------------|-----------------------|--------------------------| 
--7-------7-------7----|-----7-----------------|-----7-----7-----7-----7--| 
--7----x--7----x--7----|--x--7----x--5----5----|--------------------------| 
--5-------5-------5----|-----5-------3----3----|--5-----5-----5-----5-----| 
  
  
  E  E  E  E  E  E  E  E     E  E  E  E  E  E  E  E    
--------------------------|--------------------------| 
--------------------------|--------------------------| 
-----5-----5-----5-----5--|--------------------------| 
--------------------------|-----5-----5-----5-----5--| 
--3-----3-----3-----3-----|--------------------------| 
--------------------------|--3-----3-----3-----3-----| 
  
  
  E  E  E  E  E  E  E  E     E  E  E  E  E  E  E  E    
--------------------------|--------------------------| 
--------------------------|--------------------------| 
-----7-----7-----7-----7--|--------------------------| 
--------------------------|-----7-----7-----7-----7--| 
--5-----5-----5-----5-----|--------------------------| 
--------------------------|--5-----5-----5-----5-----| 
  
  
  E  E  E  E  E  E  E  E     E  E  E  E  E  E  E  E    
--------------------------|--------------------------| 
--------------------------|--------------------------| 
-----5-----5-----5-----5--|--------------------------| 
--------------------------|-----5-----5-----5-----5--| 
--3-----3-----3-----3-----|--------------------------| 
--------------------------|--3-----3-----3-----3-----| 
  
  
  E  E  E  E  E  E  E  E     E  E  E  Q    E  E  E     Q    Q    H          
--------------------------|-------------------------|---------------------| 
--------------------------|-------------------------|---------------------| 
-----7-----7-----7-----7--|-------------------------|---------------------| 
--------------------------|-----------5----5--5--5--|--7----5-------------| 
--5-----5-----5-----5-----|--------7----------------|------------7--------| 
--------------------------|--5--8-------------------|---------------------| 
  
  
  E  E  E  Q    E  E  E     Q    Q    H           E  E  E  E  E  E  E  E    
-------------------------|---------------------|--------------------------| 
-------------------------|---------------------|--------------------------| 
-------------------------|---------------------|--------------------------| 
-----------5----5--5--5--|--7----5----7--------|-----------5-----5--5-----| 
--------7----------------|---------------------|--------7-----------------| 
--5--8-------------------|---------------------|--5--8--------------------| 
  
  
  E  E  E  Q    E  E  E     E  E  E  E  E  E  E  E    
-------------------------|--------------------------| 
-------------------------|--------------------------| 
-------------------------|--------------------------| 
-----------5-------5-----|--5-----5-----5-----5-----| 
--------7-------7-----7--|-----7-----7-----7-----7--| 
--5--8-------------------|--------------------------| 
  
  
  E  E  E  E  E  E  E  E     E  E  E  Q    E  E  E    
--5--5-----5-----5-----5--|-------------------------| 
--5--5-----5-----5-----5--|-----------5-------------| 
--6--6-----6-----6-----6--|-----5----------5-----5--| 
--7--7-----7-----7-----7--|--------5----------5-----| 
--7--7-----7-----7-----7--|--3----------------------| 
--5--5-----5-----5-----5--|-------------------------| 
  
  
  E  E  E  E  E  E  E  E     E  E  E  Q    E  E  E    
--3--3-----3-----3-----3--|-------------------------| 
--3--3-----3-----3-----3--|-----------7-------------| 
--4--4-----4-----4-----4--|-----7----------7-----7--| 
--5--5-----5-----5-----5--|--------7----------7-----| 
--5--5-----5-----5-----5--|--5----------------------| 
--3--3-----3-----3-----3--|-------------------------| 
  
  
  E  E  E  E  E  E  E  E     E  E  E  Q    E  E  E    
--5--5-----5-----5-----5--|-------------------------| 
--5--5-----5-----5-----5--|-----------5-------------| 
--6--6-----6-----6-----6--|-----5----------5-----5--| 
--7--7-----7-----7-----7--|--------5----------5-----| 
--7--7-----7-----7-----7--|--3----------------------| 
--5--5-----5-----5-----5--|-------------------------| 
  
  
  E  E  E  E  E  E  E  E     E  E  E  Q    E  E  E    
--3--3-----3-----3-----3--|-------------------------| 
--3--3-----3-----3-----3--|-----------7-------------| 
--4--4-----4-----4-----4--|-----7----------7-----7--| 
--5--5-----5-----5-----5--|--------7----------7-----| 
--5--5-----5-----5-----5--|--5----------------------| 
--3--3-----3-----3-----3--|-------------------------| 
  
  
  E  E  E  E  E  E  E  E     E  E  E  Q    E  E  E    
--5--5-----5-----5-----5--|-------------------------| 
--5--5-----5-----5-----5--|-----------5-------------| 
--6--6-----6-----6-----6--|-----5----------5-----5--| 
--7--7-----7-----7-----7--|--------5----------5-----| 
--7--7-----7-----7-----7--|--3----------------------| 
--5--5-----5-----5-----5--|-------------------------| 
  
  
  E  E  E  E  E  E  E  E     E  E  E  Q    E  E  E    
--3--3-----3-----3-----3--|-------------------------| 
--3--3-----3-----3-----3--|-----------7-------------| 
--4--4-----4-----4-----4--|-----7----------7-----7--| 
--5--5-----5-----5-----5--|--------7----------7-----| 
--5--5-----5-----5-----5--|--5----------------------| 
--3--3-----3-----3-----3--|-------------------------| 
  
  
  E  E  E  E  E  E  E  E     E  E  E  Q    E  E  E    
--5--5-----5-----5-----5--|-------------------------| 
--5--5-----5-----5-----5--|-----------5-------------| 
--6--6-----6-----6-----6--|-----5----------5-----5--| 
--7--7-----7-----7-----7--|--------5----------5-----| 
--7--7-----7-----7-----7--|--3----------------------| 
--5--5-----5-----5-----5--|-------------------------| 
  
  
  E  E  E  E  E  E  E  E     E  E  E  Q    E  E  E     W                   
--3--3-----3-----3-----3--|-------------------------|--3----------------|| 
--3--3-----3-----3-----3--|-----------7-------------|--3----------------|| 
--4--4-----4-----4-----4--|-----7----------7-----7--|--4----------------|| 
--5--5-----5-----5-----5--|--------7----------7-----|--5----------------|| 
--5--5-----5-----5-----5--|--5----------------------|--5----------------|| 
--3--3-----3-----3-----3--|-------------------------|--3----------------|| 
  
  
  
  
Duration Legend 
--------------- 
W - whole 
H - half 
Q - quarter 
E - 8th 
S - 16th 
T - 32nd 
X - 64th 
. - note dotted 
|-n-|  - n-tuplets 
  
 
		  

See also:

tabs Deep Purple - Perfect Strangers tabs Deep Purple - Smoke on the water (intro) tabs Ira! - Nucleo De Base tabs Deep Purple - Smoke on the Water (solo) tabs Ira! - Flerte Fatal (intro e solo) tabs Deep Purple - Smoke On The Water
e-chords

Other versions:

tabs The Spin Wires - Girls Like You tabs Boyce Avenue - Girls Like You
auto scroll beats size up size down change color hide chords drawings
tab show chords e-chords YouTube Clip e-chords hide all tabs e-chords go to top tab

share