The Spazzys

Lets Get Spazzy

The Spazzys

tabs

save to print version add songbook text version e-mail correct tuner
chordsukulelecavacokeyboardtabbassdrumsharmonicaflute Guitar Pro
close

there isn't a video lesson for this song

chords

Lets Get Spazzy

	  		standard tuning: (EADGBe) 
 
chords only, you can figure out the strumming pattern 
 
 
verse chords: 
e|-------------| 
B|-------------| 
G|----9--7--9--| 
D|-7--9--7--9--| 
A|-7--7--5--7--| 
E|-5-----------| 
 
 
chorus: 
e|--------------------------------------------| 
B|--------------------------------------------| 
G|-7-----9-----7----------7-----9--------9----| 
D|-7--7--9--7--7--7--9----7--7--9--7--9--9----| 
A|-5--7--7--7--5--7--9----5--7--7--7--9--7----| 
E|----5-----5-----5--7-------5-----5--7-------| 
 
 
 
bridge: 
e|------------------------------| 
B|------------------------------| 
G|------------------------------| 
D|-7~~~~--------x\\\\\\\\\\\\\\-| 
A|-7~~~~--------x\pick scrape\\-| 
E|-5~~~~--------x\\\\\\\\\\\\\\-| 
 
 
 
 
 

See also:

tabs John Butler Trio - Attitude tabs The Dissociatives - Horror With Eyeballs tabs Wolfmother - Woman tabs Pete Murray - Tonic tabs Virgin Black - Our Wings Are Burning tabs Russell Morris - On The Wings Of An Eagle
e-chords

Other versions:

tabs The Spazzys - Lets Get Spazzy
auto scroll beats size up size down change color hide chords drawings
tab show chords e-chords YouTube Clip e-chords hide all tabs e-chords go to top tab

share