The Spazzys

Hey Hey Baby

The Spazzys

tabs Beginner beginner

save to print version add songbook text version e-mail correct tuner
chordsukulelecavacokeyboardtabbassdrumsharmonicaflute Guitar Pro
close

there isn't a video lesson for this song

chords

Hey Hey Baby

	  		To request other Australian Guitar Tab go to the Oz Tabs forum 
@ http://oztabs.proboards6.com/index.cgi 
 
Transcribed: 28 June 2004 
 
Notes: Another catchy tune from The Spazzys - nice & easy to 
play along to! 
 
1ST VERSE: 
E-|-----------------------------------2--------|- 
B-|-----------------------------------2--------|-(slight palm mute the A5 & let the 
G-|-----------------------------------2--------|- F#m ring out) 
D-|-7-7-7-7-7-7-7-7-7-7-7-7-7-7-7-7---4--------|- 
A-|-7-7-7-7-7-7-7-7-7-7-7-7-7-7-7-7---4--------|-(x 2) 
E-|-5-5-5-5-5-5-5-5-5-5-5-5-5-5-5-5---2--------|- 
 
E-|---------------------------------------------------------------------------|- 
B-|---------------------------------------------------------------------------|- 
G-|---------------------------------------------------------------------------|- 
D-|-9-9-9-9-9-9-9-9--12-12-12-12-12-12-12-12---7-7-7-7-7-7-7-7-7-7-7-7-7--7-8-|-(x 3) 
A-|-9-9-9-9-9-9-9-9--12-12-12-12-12-12-12-12---7-7-7-7-7-7-7-7-7-7-7-7-7--7-8-|- 
E-|-7-7-7-7-7-7-7-7--10-10-10-10-10-10-10-10---5-5-5-5-5-5-5-5-5-5-5-5-5--5-6-|- 
 
E-|-----------------------------------------------------------|- 
B-|-----------------------------------------------------------|- 
G-|-------------------------------------------------7-7--9-9--|- 
D-|-9-9-9-9-9-9-9-9--12-12-12-12-12-12-12-12---7----7-7--9-9--|- 
A-|-9-9-9-9-9-9-9-9--12-12-12-12-12-12-12-12---7----5-5--7-7--|- 
E-|-7-7-7-7-7-7-7-7--10-10-10-10-10-10-10-10---5--------------|- 
 
CHORUS: 
E-|---------------------------------------------------------------------|- 
B-|---------------------------------------------------------------------|- 
G-|---------------------------------------------------------------------|- 
D-|-7-7-7-7-7-7-7-7--2-2-2-2-2-2-2-2--9-9-9-9-9-9-9-9--2-2-2-2-2-2-2-2--|-(x 3) 
A-|-7-7-7-7-7-7-7-7--2-2-2-2-2-2-2-2--9-9-9-9-9-9-9-9--2-2-2-2-2-2-2-2--|- 
E-|-5-5-5-5-5-5-5-5--0-0-0-0-0-0-0-0--7-7-7-7-7-7-7-7--0-0-0-0-0-0-0-0--|- 
 
PRE 2ND VERSE: 
E-|---------------------|- 
B-|---------------------|- 
G-|----7-7-7-----9-9-9--|- 
D-|-7--7-7-7--7--9-9-9--|- 
A-|-7--5-5-5--7--7-7-7--|- 
E-|-5---------5---------|- 
 
2ND VERSE: 
E-|-----------------------------------2--------|- 
B-|-----------------------------------2--------|-(slight palm mute the A5 & let the 
G-|-----------------------------------2--------|- F#m ring out) 
D-|-7-7-7-7-7-7-7-7-7-7-7-7-7-7-7-7---4--------|- 
A-|-7-7-7-7-7-7-7-7-7-7-7-7-7-7-7-7---4--------|-(x 2) 
E-|-5-5-5-5-5-5-5-5-5-5-5-5-5-5-5-5---2--------|- 
 
E-|---------------------------------------------------------------------------|- 
B-|---------------------------------------------------------------------------|- 
G-|---------------------------------------------------------------------------|- 
D-|-9-9-9-9-9-9-9-9--12-12-12-12-12-12-12-12---7-7-7-7-7-7-7-7-7-7-7-7-7--7-8-|-(x 3) 
A-|-9-9-9-9-9-9-9-9--12-12-12-12-12-12-12-12---7-7-7-7-7-7-7-7-7-7-7-7-7--7-8-|- 
E-|-7-7-7-7-7-7-7-7--10-10-10-10-10-10-10-10---5-5-5-5-5-5-5-5-5-5-5-5-5--5-6-|- 
 
E-|-----------------------------------------------------------|- 
B-|-----------------------------------------------------------|- 
G-|-------------------------------------------------7-7--9-9--|- 
D-|-9-9-9-9-9-9-9-9--12-12-12-12-12-12-12-12---7----7-7--9-9--|- 
A-|-9-9-9-9-9-9-9-9--12-12-12-12-12-12-12-12---7----5-5--7-7--|- 
E-|-7-7-7-7-7-7-7-7--10-10-10-10-10-10-10-10---5--------------|- 
 
CHORUS:  
E-|---------------------------------------------------------------------|- 
B-|---------------------------------------------------------------------|- 
G-|---------------------------------------------------------------------|- 
D-|-7-7-7-7-7-7-7-7--2-2-2-2-2-2-2-2--9-9-9-9-9-9-9-9--2-2-2-2-2-2-2-2--|-(repeat till end and 
A-|-7-7-7-7-7-7-7-7--2-2-2-2-2-2-2-2--9-9-9-9-9-9-9-9--2-2-2-2-2-2-2-2--|- finish on an A5 chord) 
E-|-5-5-5-5-5-5-5-5--0-0-0-0-0-0-0-0--7-7-7-7-7-7-7-7--0-0-0-0-0-0-0-0--|- 
 
 
 

		  

Full key step upFull key step up
Half key step upHalf key step up
Half key step downHalf key step down
Full key step downFull key step down
hide glossary

See also:

tabs John Butler Trio - Attitude tabs The Dissociatives - Horror With Eyeballs tabs Wolfmother - Woman tabs Pete Murray - Tonic tabs Virgin Black - Our Wings Are Burning tabs Russell Morris - On The Wings Of An Eagle
e-chords

Other versions:

tabs The Spazzys - Hey Hey Baby
auto scroll beats size up size down change color hide chords drawings
tab show chords e-chords YouTube Clip e-chords hide all tabs e-chords go to top tab

share