The Sound

Heartland

The Sound

tabs

by  SUZY_FLASH

save to print version add songbook text version e-mail correct tuner
chordsukulelecavacokeyboardtabbassdrumsharmonicaflute Guitar Pro
close

there isn't a video lesson for this song

chords

Heartland

	  		THE SOUND - HEARTLAND 
 
Intro: 
 
synth for guitar (but lower) 
    
  D                    A 
 
G|---7-----10--9--------5------9--7------| 
D|---0------0--0-------------------------| 
A|----------------------0------0--0------| 
 
 
bass (find you're own rythm) 
 
G|--------------------------------------------| 
D|--------------------------------------------| 
A|---0-0-0-0-0-0-0-0-0--5-5-5-5-5-5-5-5-5-5---| 
E|--------------------------------------------| 
 
G|--------------------------------------------| 
D|--------------------------------------------| 
A|--------------------------------------------| 
E|---3-3-3-3-3-3-3-3-3--5-5-5-5-5-5-5-5-5-5---| 
 
 
Chorus 
 
G|--------------------------------------------| 
D|--------------------------------------------| 
A|---0-0-0-0-0-0-0-0-0--5-5-5-5-5-5-5-5-5-5---|x2 
E|--------------------------------------------| 
 
G|--------------------------------------------| 
D|--------------------------------------------| 
A|--------------------------------------------| x2 
E|---3-3-3-3-3-3-3-3-3--5-5-5-5-5-5-5-5-5-5---| 
 
...in a heartland then.. 
 
G|--------------------------------------------| 
D|--------------------------------------------| 
A|--------------3-5---------------3-5---------| 
E|--5-5-5-5-5-5-------3-3-3-3-3-3-------------| 
 
G|--------------3-----------------------------| 
D|----------------3---------------------------| 
A|--5-5-5-5-5-5-----------------------3-------| 
E|----------------------5-5-5-5-5-5-3---------| 
 
 
as far as the guitar goes: (this is an interpretation, the root notes are correct I guess so you can play with it) 
 
at first play some powerchords: 
 
 C D G A 
 
then I go over to 
 
Am7 Dm7 G Am 
 
when he sings: 'I got to believe' change to 
 
Em to Am 
 
then 
E|--------------------------------------------| 
B|-------------^------------------------------| 
G|----7-7-7-7--7-/--9-9-9-9-9-9-9-------------| 
D|----5-5-5-5--5-/--7-7-7-7-7-7-7-------------| 
A|----0-0-0-0--0------------------------------| 
E|--------------------------------------------| 
 
E|--------------------------------------------| 
B|--------------------------------------------| 
G|-------------^------------------------------| 
D|----5-5-5-5--5/---7-7-7-7-7-7-7-------------| 
A|----3-3-3-3--3/---5-5-5-5-5-5-5-------------| 
E|--------------------------------------------| 
 
E|--------------------------------------------| 
B|--------------------------------------------| 
G|--------------------------------------------| 
D|-------------^------------------------------| 
A|----5-5-5-5--5-/--7-7-7-7-7-7-7-------------| 
E|----3-3-3-3--3-/--5-5-5-5-5-5-5-------------| 
 
 
solo.??? 
minisolo COULD be ( do something with these notes, it's music , not science) 
 
G|---5------9----7-----------------------------| 
D|------7--------------------------------------| 
 
  
outro 
 
C Am 

Tabbed by: suzy_flash (patricia ford fanclub) 
Email:[email protected] 
 
 
suzy's standard Tuning  
 

		  

Full key step upFull key step up
Half key step upHalf key step up
Half key step downHalf key step down
Full key step downFull key step down
hide glossary

See also:

tabs Red Hot Chili Peppers - I Could Have Lied tabs Ben Harper - Diamonds on inside tabs Red Hot Chili Peppers - By The Way (ver. 2) tabs Audioslave - Show Me How To Live tabs Incubus - 11 A.M. tabs Red Hot Chili Peppers - Scar Tissue
e-chords

Other versions:

tabs The Sound - Heartland tabs Stick Figure - Heartland
auto scroll beats size up size down change color hide chords drawings
tab show chords e-chords YouTube Clip e-chords hide all tabs e-chords go to top tab

share