The Sisters Of Mercy

Dominion

The Sisters Of Mercy

tabs Easy easy

by  SALGOTHZ

save to print version add songbook text version e-mail correct tuner
chordsukulelecavacokeyboardtabbassdrumsharmonicaflute Guitar Pro
close

there isn't a video lesson for this song

chords

Dominion

	  		banda: Sisters of Mercy 
Musica: Dominion 
Album: Floodland 
 
Guitar I (repeats throughout) 
			  * 
E|------------------------|---3--------------------| 
B|--------------------3---|--------------------3---| 
G|----------------0-------|----------------0-------| 
D|------------------------|------------------------| 
A|------------------------|------------------------| 
E|------------------------|------------------------| 
 
E|---1--------------------|---1--------------------| 
B|--------------------3---|--------------------3---| 
G|----------------0-------|----------------0-------| 
D|------------------------|------------------------| 
A|------------------------|------------------------| 
E|------------------------|------------------------| 
 
E|---1--0--0--0-----------| 
B|--------------------3---| (repete de *) 
G|----------------0-------| 
D|------------------------| 
A|------------------------| 
E|------------------------| 
 
Bass Line (comece depois da introdução/repeats throughout) 
			  * 
G|------------------------|------------------------| 
D|------------------------|------------------------| 
A|------------------------|------------------------| 
E|------------------------|--3--3--3--3--3--3--3--3| 
 
G|------------------------|------------------------| 
D|------------------------|------------------------| 
A|------------------------|--5--5--5--5--5--5--5--5| 
E|--6--6--6--6--6--6--6--6|------------------------| 
 
G|------------------------| 
D|------------------------| (repete de *) 
A|--5--5--5--5--5--5--5--5| 
E|------------------------| 
 
Guitar II (Chorus) 
 
E|------------------------|------------------------| 
B|------------------------|------------------------| 
G|------------------------|------------------------| 
D|---------------------3--|--5------------------3--| 
A|---------------------3--|--5------------------3--| 
E|---------------------1--|--3------------------1--| 
 
E|------------------------|------------------------| 
B|------------------------|------------------------| 
G|------------------------|------------------------| 
D|--5------------------3--|--5------------------3--| 
A|--5------------------3--|--5------------------3--| 
E|--3------------------1--|--3------------------1--| 
 
E|------------------------|------------------------| 
B|------------------------|------------------------| 
G|------------------------|------------------------| 
D|--5----5--5-------------|--5---------------------| 
A|--5----5--5-------------|--5---------------------| 
E|--3----3--3-------------|--3---------------------| 
 
E|------------------------|------------------------| 
B|------------------------|------------------------| 
G|------------------------|--5---------------------| 
D|--8---------------------|--5---------------------| 
A|--8---------------------|--3---------------------| 
E|--6---------------------|------------------------| 
 
E|------------------------| 
B|------------------------| 
G|--5---------------------| 
D|--5---------------------| 
A|--3---------------------| 
E|------------------------| 
 
 
 

		  

See also:

tabs The Sisters Of Mercy - Floodland tabs The Sisters Of Mercy - Walk Away tabs The Sisters Of Mercy - Lucretia (ver. 2) tabs The Sisters Of Mercy - Andrenochrome tabs The Sisters Of Mercy - We Are The Same Susanne tabs The Sisters Of Mercy - Lucretia my reflection
e-chords

Other versions:

tabs The Sisters Of Mercy - Dominion
auto scroll beats size up size down change color hide chords drawings
tab show chords e-chords YouTube Clip e-chords hide all tabs e-chords go to top tab

share