The Shouting Matches

I Had A Real Good Lover

The Shouting Matches

tabs

by  BOMBAXXX

save to print version add songbook text version e-mail correct tuner
chordsukulelecavacokeyboardtabbassdrumsharmonicaflute Guitar Pro
close

there isn't a video lesson for this song

chords

I Had A Real Good Lover

	  		

Tuning: 
         E                               B                         C#m 
e|-------7-x-----------------------------7-x-----------------------4-x------------------------------| 
B|-------9-x--------------9--------------7-x-----------------------5-x----12-9----------------------| 
G|-------9-x-----------9-----9-----------8-x----8/9\8--8/9\8-------6-x---------11-9-11--11^----9s11-| 
D|-------9-x--------9-----------9--------9-x-----------------------6-x----------------------11------| 
A|----7--7-x----7------------------------9-x--------------------4--4-x------------------------------| 
E|----0-------------------------------7--7-x--------------------------------------------------------| 
         A 
e|-------5-x----------------------------------------------------------------------------------------| 
B|-------5-x----------------------------------------------------------------------------------------| 
G|-------6-x----6/7\6--6/7\6------------------------------------------------------------------------| 
D|-------7-x----------------------------------------------------------------------------------------| 
A|-------7-x----------------------------------------------------------------------------------------| 
E|----5--5-x----------------------------------------------------------------------------------------| 

E                        B 
I had a real good lover 
C#m                        A 
But she's gone from me now 


e|-------5-x------------------------| 
B|-------5-x------------------------| 
G|-------6-x----6/7\6--6/7\6--------| 
D|-------7-x------------------------| 
A|-------7-x------------------------| 
E|----5--5-x------------------------| 

E                            B 
When you know she's gone 
C#m                          A 
Cause there ain't no .... 

Chorus 

A   G#m 
         Somebody say that ..... 
************************************ 

| /   slide up 
| \   slide down 
| h   hammer-on 
| p   pull-off 
| ~   vibrato 
| +   harmonic 
| x   Mute note 
| b   Bend 
| pb  Pre-bend 
| br  Bend release 
| pbr Pre-bend release 
| brb Bend release bend 

************************************ 
		  

Full key step upFull key step up
Half key step upHalf key step up
Half key step downHalf key step down
Full key step downFull key step down
hide glossary

See also:

tabs Felt - Sunlight Bathed The Golden Glow tabs Roo Panes - Tiger Striped Sky tabs Felt - Something Sends Me To Sleep tabs The Neighbourhood - Baby Came Home tabs The Civil Wars - My Father's Father tabs Twenty One Pilots - Holding On To You
e-chords

Other versions:

tabs The Shouting Matches - I Had A Real Good Lover
auto scroll beats size up size down change color hide chords drawings
tab show chords e-chords YouTube Clip e-chords hide all tabs e-chords go to top tab

share