The Shins

Sea Legs (acoustic)

The Shins

tabs

by  ANDRSOUZA

save to print version add songbook text version e-mail correct tuner
chordsukulelecavacokeyboardtabbassdrumsharmonicaflute Guitar Pro
close

there isn't a video lesson for this song

chords

Sea Legs (acoustic)

	  		
Intro/Verse 
e|---------xxxxx-----------x-x--xxx----------x-xx-x-----------x--x--x-x-x-----| 
B|---------xxxxx-----------x-x--xxx----------x-xx-x-----------x--x--x-x-x-----| 
G|---------7777x-----------7-7--777----------3-33-x-----------10-10-101010----| 
D|---------7777x-----------5-5--555----------3-33-x-----------10-10-101010----| 
A|---------5555x-----------5-5--555----------1-11-x-----------8--8--8-8-8-----| 
E|---------5555x-----------0-0--000----------1-11-x-----------8--8--8-8-8-----| 

e|---------xxxxx-----------x-x--xxx----------x-xx-x-----------x-x--xxx--------| 
B|---------xxxxx-----------x-x--xxx----------x-xx-x-----------x-x--xxx--------| 
G|---------7777x-----------7-7--777----------3-33-x-----------5-5--555--------| 
D|---------7777x-----------5-5--555----------3-33-x-----------5-5--555--------| 
A|---------5555x-----------5-5--555----------1-11-x-----------3-3--333--------| 
E|---------5555x-----------0-0--000----------1-11-x-----------3-3--333--------| 
Repeat x6 

Chorus 
e|---------x--x-xx-xxx-------x-xx-xx-xxx-----x-x-xx-xxx-------x-xx-xx-xxx-----| 
B|---------3--3-33-333-------7-77-77-777-----x-x-xx-xxx-------x-xx-xx-xxx-----| 
G|---------3--3-33-333-------7-77-77-777-----7-7-77-777-------5-33-33-333-----| 
D|---------3--3-33-333-------7-77-77-777-----5-5-55-555-------3-33-33-333-----| 
A|---------1--1-11-111-------5-55-55-555-----x-x-xx-xxx-------x-xx-xx-xxx-----| 
E|---------x--x-xx-xxx-------x-xx-xx-xxx-----x-x-xx-xxx-------x-xx-xx-xxx-----| 
Repeat x2 

Chorus Outro 
e|---------x-x-xxxx-------x-x-xxxx-------| 
B|---------3-3-3333-------5-5-5555-------| 
G|---------3-3-3333-------5-5-5555-------| 
D|---------3-3-3333-------5-3-3333-------| 
A|---------1-1-1111-------3-3-3333-------| 
E|---------x-x-xxxx-------x-x-xxxx-------| 

 
		  

See also:

tabs Red Hot Chili Peppers - Under the Bridge tabs Eye of the tiger - Eye of the tiger tabs Los Lonely Boys - Heaven tabs Red Hot Chili Peppers - Snow (hey oh) tabs Jeff Buckley - Hallelujah tabs Red Hot Chili Peppers - Venice Queen
e-chords

Other versions:

tabs The Shins - Sea Legs (acoustic)
auto scroll beats size up size down change color hide chords drawings
tab show chords e-chords YouTube Clip e-chords hide all tabs e-chords go to top tab

share