The Rolling Stones

home > The Rolling Stones

Torn and Frayed Tab

The Rolling Stones

Difficulty: nolevelnolevel

by carlluz

tuner correct add songbook print version text version save to e-mail
chordsukulelecavacokeyboardtabbassdrumsharmonicsflute Guitar Pro
chords

Torn and Frayed

Year: 1972 - Album: Exile on Main St.

  		 Intro 
  Q=90 
  DsDs2 DsAs2                 DsDs2 Dsus2A 
 4/4 
  Gtr I (Ac. Gtr.) 
     E Q  E S S     E S S     
|-0-2-2-0----------|-0-0-0-0-0-0-2-2-0-|| 
|-3-3-3-3-2--2-2-2-|-0-0-0-0-0-3-3-3-3-|| 
|-2-2-2-2-2--2-2-2-|-1-1-1-1-1-2-2-2-2-|| 
|-0-0-0-0-2--2-2-2-|-2---2-2-2-0-0-0-0-|| 
|---------0--0-0-0-|-2---2-2-2---------|| 
|------------------|-0---0-0-0---------|| 
| 
| Gtr II (El. Gtr.) 
| W                  W 
|------------------|-------------------|| 
|------------------|-------------------|| 
|------------------|-------------------|| 
|------------------|-------------------|| 
|------------------|-------------------|| 
|------------------|-------------------|| 


 Pre-Verse 
           G5    D           DsusD     Dsus2 
  Q  E S S       Q  E. S         
|----------3-3-3-2-|-2--2--2-3---2-2---0---|| 
|-2--2-2-2-3-3-3-3-|-3--3--3-3---3-3---3---|| 
|-2--2-2-2-0-0-0-2-|-2--2--2-2---2-2---2---|| 
|-2--2-2-2-0-0-0-0-|-0--0--0-0---0-0---0---|| 
|-0--0-0-0---------|-----------------------|| 
|----------3-3-3---|-----------------------|| 
| 
| W                  H       S S e S S e 
|------------------|-----------------------|| 
|------------------|-----------------------|| 
|------------------|---------7---7-----7---|| 
|------------------|---------7h9-------7---|| 
|------------------|---------------7h9-----|| 
|------------------|-----------------------|| 


   1st - 4th Verses 
    $ 
    D      A                 D   DsuD4DsusA 
    Q   E Q  E S S          S S  
||--2--2-2----------|-0-0-0-0-2-2--3-2-0-| 
||o-3--3-3-2--2-2-2-|-0-0-0-0-3-3--3-3-3-| 
||--2--2-2-2--2-2-2-|-1-1-1-1-2-2--2-2-2-| 
||--0--0-0-2--2-2-2-|-2---2-2-0-0--0-0-0-| 
||o--------0--0-0-0-|-2---2-2------------| 
||------------------|-0---0-0------------| 
| 
|   Q  e e q  e e     e e e e q    e    
||-----2------5-----|---4-4-------10-----| 
||o----3------5-----|---5-5-------10-----| 
||-----2------6-----|---4-4-------11-----| 
||------------------|--------------------| 
||o-----------------|--------------------| 
||------------------|--------------------| 


            G5         D          DsusD DsusD 
  Q   E S S        Q   E.   S         
|-----------3-3--3---|-2---2----2-3---2-0---2--| 
|-2---2-2-2-3-3--3---|-3---3----3-3---3-3---3--| 
|-2---2-2-2-0-0--0---|-2---2----2-2---2-2---2--| 
|-2---2-2-2-0-0--0---|-0---0----0-0---0-0---0--| 
|-0---0-0-0----------|-------------------------| 
|-----------3-3--3-0-|-------------------------| 
| 
| E e e    Q    e    Q   e     S S e S S e 
|---------------10---|----10-------------------| 
|---5-5---------12---|----10-------------------| 
|-----6---------12---|----11------7---7-----7--| 
|-----7--------------|----12------7h9---7---7--| 
|--------------------|------------------7h9----| 
|--------------------|-------------------------| 


         A                    D   DsuD4DsusA 
  Q   E Q    E S S           S S  
|-2--2-2------------|-0-0--0-0-2-2--3-2-0-| 
|-3--3-3-2----2-2-2-|-0-0--0-0-3-3--3-3-3-| 
|-2--2-2-2----2-2-2-|-1-1--1-1-2-2--2-2-2-| 
|-0--0-0-2----2-2-2-|-2----2-2-0-0--0-0-0-| 
|--------0----0-0-0-|-2----2-2------------| 
|-------------------|-0----0-0------------| 
| 
| Q  e e q  a e e     e e  e e q    e   e 
|----2--------------|--------------10-----| 
|----3--------2-----|---9-10-------10-----| 
|----2--------4-----|---9-11-------11-----| 
|-----------2h4-----|--------------12-----| 
|-------------------|---------------------| 
|-------------------|---------------------| 


           G5        D          DsusD DsusD 
  Q  E S S       Q   E.   S         
|----------3-3-3---|-2---2----2-3---2-0---2--|| 
|-2--2-2-2-3-3-3---|-3---3----3-3---3-3---3--|| 
|-2--2-2-2-0-0-0---|-2---2----2-2---2-2---2--|| 
|-2--2-2-2-0-0-0---|-0---0----0-0---0-0---0--|| 
|-0--0-0-0---------|-------------------------|| 
|----------3-3-3-0-|-------------------------|| 
| 
| q  e e   q   e e   q   e     S S e S S e 
|----5---------7---|----10-------------------|| 
|----5---------8---|----10-------------------|| 
|----6---------7---|----11------7---7--------|| 
|------------------|------------7h9---7---7--|| 
|------------------|------------------7h9----|| 
|------------------|-------------------------|| 


 Chorus 
  A        G5        D          DsusD DsusD 
  Q  E S S       Q   E.   S         
|----------3-3-3---|-2---2----2-3---2-0---2-| 
|-2--2-2-2-3-3-3---|-3---3----3-3---3-3---3-| 
|-2--2-2-2-0-0-0---|-2---2----2-2---2-2---2-| 
|-2--2-2-2-0-0-0---|-0---0----0-0---0-0---0-| 
|-0--0-0-0---------|------------------------| 
|----------3-3-3-0-|------------------------| 
| 
| Q  e e   q   e e   q   e  e   S S e S S e 
|----5---------7---|----10------------------| 
|----5---------8---|----10------------------| 
|----6---------7---|----11------7---7-------| 
|------------------|------------7h9---7---7-| 
|------------------|------------------7h9---| 
|------------------|------------------------| 


  A                 D          DsusD DsusD 
  Q  E S S       Q   E.   S         
|----------3-3-3---|-2---2----2-3---2-0---2-| 
|-2--2-2-2-3-3-3---|-3---3----3-3---3-3---3-| 
|-2--2-2-2-0-0-0---|-2---2----2-2---2-2---2-| 
|-2--2-2-2-0-0-0---|-0---0----0-0---0-0---0-| 
|-0--0-0-0---------|------------------------| 
|----------3-3-3-0-|------------------------| 
| 
| Q  e e   q   e e   q   e     S S e S S e 
|----5---------7---|----10------------------| 
|----5---------8---|----10------------------| 
|----6---------7---|----11------7---7-------| 
|------------------|------------7h9---7---7-| 
|------------------|------------------7h9---| 
|------------------|------------------------| 


                                                         1.,D.C. 
                                              To Coda 
  A        G5        D          DsusD DsusD   A    D      A7 
  Q  E S S       Q   E.   S           H    H      W 
|----------3-3-3---|-2---2----2-3---2-0---2-|------2----|-3-----|| 
|-2--2-2-2-3-3-3---|-3---3----3-3---3-3---3-|-2----3----|-2----o|| 
|-2--2-2-2-0-0-0---|-2---2----2-2---2-2---2-|-2----2----|-2-----|| 
|-2--2-2-2-0-0-0---|-0---0----0-0---0-0---0-|-2----0----|-2-----|| 
|-0--0-0-0---------|------------------------|-0---------|-0----o|| 
|----------3-3-3-0-|------------------------|-----------|-------|| 
| 
| q  e e   q   e e   q   e     S S e S S e   H    H      W 
|----5---------7---|----10------------------|-----------|-------|| 
|----5---------8---|----10------------------|------3----|------o|| 
|----6---------7---|----11------7---7-------|-2----2----|-2-----|| 
|------------------|------------7h9---7---7-|-2----0----|-2-----|| 
|------------------|------------------7h9---|-0---------|-0----o|| 
|------------------|------------------------|-----------|-------|| 


  2. 
  A7             A          D        A7             A 
  H      +Q.        H      H        H       +Q.     
|-3------(3)-------|-0------2------|-3-------(3)----0-| 
|-2------(2)-------|-2------3------|-2-------(2)----2-| 
|-2------(2)-----2-|-2------2------|-2-------(2)----2-| 
|-2------(2)-----2-|-2------0------|-2-------(2)----2-| 
|-0------(0)-----0-|-0-------------|-0-------(0)----0-| 
|------------------|---------------|------------------| 
| 
| Q     Q    q     Q   E Q           Q   Q 
|----5----5---17---|----5---5--5---|---5-5----5---5---| 
|------5-----------|-5----5------5-|-5-----5--5---5---| 
|------------------|---------------|------------------| 
|------------------|---------------|------------------| 
|------------------|---------------|------------------| 
|------------------|---------------|------------------| 


                            D.S. al Coda 
           D     A5 
  Q.     E Q       H      +E  E S S  
|-0------0-2---2---|---------------------|| 
|-2------2-3---3---|---------------------|| 
|-2------2-2---2-2-|-2------(2)-2-2-2-2--|| 
|-2------2-0---0-2-|-2------(2)-2-2-2-2--|| 
|-0------0-------0-|-0------(0)-0-0-0-0--|| 
|------------------|---------------------|| 
| 
|            Q            
|----5-------5-----|-5--5----5----5------|| 
|------5-------5---|-5----5-----5-----5--|| 
|-6------6-7-----7-|-6-------------------|| 
|------------------|---------------------|| 
|------------------|---------------------|| 
|------------------|---------------------|| 


  & 
  A7             A      D    A            G5         D 
  H    +Q.      Q.   E Q.      Q       Q       Q  Q     Q     Q 
|-3----(3)---3-|-0------2------|-0---0-----3---3---|-2--2-----2-----2-----|| 
|-2----(2)---2-|-2------3------|-2---2-----3---3---|-3--3-----3-----3-----|| 
|-2----(2)---2-|-2----2-2----2-|-2---2-----0---0---|-2--2-----2-----2-----|| 
|-2----(2)---2-|-2----2-0----2-|-2---2-----0---0-0-|-0--0-----0-----0-----|| 
|-0----(0)---0-|-0----0------0-|-0---0--0----------|----------------------|| 
|--------------|---------------|-----------3---3---|----------------------|| 
| 
| W              Q.   E Q.      Q       Q   Q     Q  E S S E S S S S  
|--------------|---------------|-------------------|----------------------|| 
|--------------|---------------|----------14--14---|----------------------|| 
|-2------------|-6------7------|-9--------14--14---|----------7-----7---7-|| 
|-2------------|------7------7-|-------14-14--14---|------7---7-7---7h9-7-|| 
|-0------------|---------------|----12-------------|------7h9---7h9-------|| 
|--------------|---------------|-------------------|----------------------|| 


 Chorus 
  A        G5        D          DsusD DsusD 
  Q  E S S       Q   E.   S         
|----------3-3-3---|-2---2----2-3---2-0---2-| 
|-2--2-2-2-3-3-3---|-3---3----3-3---3-3---3-| 
|-2--2-2-2-0-0-0---|-2---2----2-2---2-2---2-| 
|-2--2-2-2-0-0-0---|-0---0----0-0---0-0---0-| 
|-0--0-0-0---------|------------------------| 
|----------3-3-3-0-|------------------------| 
| 
| q  e e   q   e e   q   e     S S e S S e 
|----5---------7---|----10------------------| 
|----5---------8---|----10------------------| 
|----6---------7---|----11------7---7-------| 
|------------------|------------7h9-7-7-----| 
|------------------|------------------7h9-7-| 
|------------------|------------------------| 


  A        G5        D          DsusD DsusD 
  Q  E S S       Q   E.   S         
|----------3-3-3---|-2---2----2-3---2-0---2-| 
|-2--2-2-2-3-3-3---|-3---3----3-3---3-3---3-| 
|-2--2-2-2-0-0-0---|-2---2----2-2---2-2---2-| 
|-2--2-2-2-0-0-0---|-0---0----0-0---0-0---0-| 
|-0--0-0-0---------|------------------------| 
|----------3-3-3-0-|------------------------| 
| 
| Q  e e   q   e e   q   e     S S e S S e 
|----5---------7---|----10------------------| 
|----5---------8---|----10------------------| 
|----6---------7---|----11------7---7-------| 
|------------------|------------7h9-7-7-----| 
|------------------|------------------7h9-7-| 
|------------------|------------------------| 


  A        G5        D          DsusD DsusD 
  Q  E S S       Q   E.   S         
|----------3-3-3---|-2---2----2-3---2-0---2-| 
|-2--2-2-2-3-3-3---|-3---3----3-3---3-3---3-| 
|-2--2-2-2-0-0-0---|-2---2----2-2---2-2---2-| 
|-2--2-2-2-0-0-0---|-0---0----0-0---0-0---0-| 
|-0--0-0-0---------|------------------------| 
|----------3-3-3-0-|------------------------| 
| 
| q  e e   q   e e   q   e  e   S S e S S e 
|----5---------7---|----10------------------| 
|----5---------8---|----10------------------| 
|----6---------7---|----11------7---7-------| 
|------------------|------------7h9-7-7-----| 
|------------------|------------------7h9-7-| 
|------------------|------------------------| 


  A         G5         D          Dsus4   D    Dsus2D 
  Q   E S S        Q   E.   S                  
|-----------3-3--3---|-2---2----2--3------2------0---2-| 
|-2---2-2-2-3-3--3---|-3---3----3--3------3------3---3-| 
|-2---2-2-2-0-0--0---|-2---2----2--2------2------2---2-| 
|-2---2-2-2-0-0--0---|-0---0----0--0------0------0---0-| 
|-0---0-0-0----------|---------------------------------| 
|-----------3-3--3-0-|---------------------------------| 
| 
| Q   e e   q    e e   q   e  e    S        S       
|-----9---------10---|----10----------12--------14--12-| 
|----10---------12---|----10---------------------------| 
|-----9---------12---|----11------12-(12)s==14-(14)-12-| 
|--------------------|---------------------------------| 
|--------------------|---------------------------------| 
|--------------------|---------------------------------| 


  A         G5         D          Dsus4 D  Dsus2 D 
  Q   E S S        Q   E.   S               
|-----------3-3--3---|-2---2----2--3-----2--0-----2-| 
|-2---2-2-2-3-3--3---|-3---3----3--3-----3--3-----3-| 
|-2---2-2-2-0-0--0---|-2---2----2--2-----2--2-----2-| 
|-2---2-2-2-0-0--0---|-0---0----0--0-----0--0-----0-| 
|-0---0-0-0----------|------------------------------| 
|-----------3-3--3-0-|------------------------------| 
| 
| Q   e e   q    e e   q   e      S  S    S  S   
|-----9---------10---|----10------10----10-10----10-| 
|----10---------12---|----10---------10-------10----| 
|-----9---------12---|----11------------------------| 
|--------------------|------------------------------| 
|--------------------|------------------------------| 
|--------------------|------------------------------| 


  A         G5         D            Dsus4 D  Dsus2 D 
  Q   E S S        Q   E.     S              
|-----------3-3--3---|-2---2------2--3-----2--0----2------|| 
|-2---2-2-2-3-3--3---|-3---3------3--3-----3--3----3------|| 
|-2---2-2-2-0-0--0---|-2---2------2--2-----2--2----2------|| 
|-2---2-2-2-0-0--0---|-0---0------0--0-----0--0----0------|| 
|-0---0-0-0----------|------------------------------------|| 
|-----------3-3--3-0-|------------------------------------|| 
| 
| Q   e e   q    e    Q   e   S  S  S  S    S      S 
|-----9---------10---|----10-----10-12----12----14--------|| 
|----10---------12---|----10------------------------------|| 
|-----9---------12---|----11--11-------12----14------14---|| 
|--------------------|------------------------------------|| 
|--------------------|------------------------------------|| 
|--------------------|------------------------------------|| 


 Outro 
  A                     G5 
   Q               S S                  
|-------------------------3--3------3--------| 
|--2---------2------2-2---3--3------3--------| 
|--2---------2------2-2---0--0------0--------| 
|--2---------2------2-2---0--0------0--------| 
|--0---------0------0-0----------------------| 
|-------------------------3--3------3------0-| 
| 
|  S    S  +S   S         S  S  +S   S   
|-14----14-(14)----14-------12---------12----| 
|--------------------------------------------| 
|----14---------14------\12----12-(12)----12-| 
|--------------------------------------------| 
|--------------------------------------------| 
|--------------------------------------------| 


  D                    Dsus4 D   DsuD2   A                      G5 
  Q         E.       S                Q                S S                 
|-2---------2--------2--3----2----0--2-|-------------------------3----3-----3-------| 
|-3---------3--------3--3----3----3--3-|--2-----------2-----2-2--3----3-----3-------| 
|-2---------2--------2--2----2----2--2-|--2-----------2-----2-2--0----0-----0-------| 
|-0---------0--------0--0----0----0--0-|--2-----------2-----2-2--0----0-----0-------| 
|--------------------------------------|--0-----------0-----0-0---------------------| 
|--------------------------------------|-------------------------3----3-----3-----0-| 
| 
|   S  S  +S   S      S     S  e      S  S  S  S  S  S      S      S  S  E. 
|------10-(10)----10---12--------14----|-14-------14-------14------12------12-------| 
|--------------------------------------|-------17-------17--------------------------| 
|-9s11---------11---------12---x----14-|----14-------14---------12------12----12----| 
|--------------------------------------|--------------------------------------------| 
|--------------------------------------|--------------------------------------------| 
|--------------------------------------|--------------------------------------------| 


  D                    Dsus4 D    Dsus2    D 
  Q         E.       S                   
|-2---------2--------2--3----2------0------2-| 
|-3---------3--------3--3----3------3------3-| 
|-2---------2--------2--2----2------2------2-| 
|-0---------0--------0--0----0------0------0-| 
|--------------------------------------------| 
|--------------------------------------------| 
| 
|   S  S  +S   S      S      S   S   E. 
|------10-(10)----10---12------12--12s=14----| 
|--------------------------------------------| 
|-9s11---------11---------12---12-(12)s14----| 
|--------------------------------------------| 
|--------------------------------------------| 
|--------------------------------------------| 


  A                      G5                      D                    Dsus4 D    Dsus2 D 
   Q                S S                     Q         E.       S                 
|-------------------------3-----3-----3--------|-2---------2--------2--3----2-----0-----2-| 
|--2-----------2-----2-2--3-----3-----3--------|-3---------3--------3--3----3-----3-----3-| 
|--2-----------2-----2-2--0-----0-----0--------|-2---------2--------2--2----2-----2-----2-| 
|--2-----------2-----2-2--0-----0-----0--------|-0---------0--------0--0----0-----0-----0-| 
|--0-----------0-----0-0-----------------------|------------------------------------------| 
|-------------------------3-----3-----3----0---|------------------------------------------| 
| 
|  S  S  S  S  S  S      S  S  S  S  S     S     S  S  +S   S      S      S  S  S   
|-14-------14-------14------12-------12--------|------10-(10)----10---12------12s14-14----| 
|-------17-------17---------------15----15-----|------------------------------------------| 
|----14-------14---------12----12--------------|-9s11---------11---------12---12s14----14-| 
|----------------------------------------------|------------------------------------------| 
|----------------------------------------------|------------------------------------------| 
|----------------------------------------------|------------------------------------------| 


  A                      G5 
   Q                S S                    
|-------------------------3-----3------3--------| 
|--2-----------2-----2-2--3-----3------3--------| 
|--2-----------2-----2-2--0-----0------0--------| 
|--2-----------2-----2-2--0-----0------0--------| 
|--0-----------0-----0-0------------------------| 
|-------------------------3-----3------3------0-| 
| 
|  S  S  S  S  S  S      S  S  S  S  +S   S   
|-14----14----14----14---12-------12-(12)----12-| 
|-----------------------------------------------| 
|----14----14----14---------12-12---------12----| 
|-----------------------------------------------| 
|-----------------------------------------------| 
|-----------------------------------------------| 


  D              Dsus4 D     Dsus2 D 
  Q     E.     S                  
|-2-----2------2--3-----2-----0-----2-*| 
|-3-----3------3--3-----3-----3-----3-*| 
|-2-----2------2--2-----2-----2-----2-*| 
|-0-----0------0--0-----0-----0-----0-*| 
|-------------------------------------*| 
|-------------------------------------*| 
| 
|        S  S  S  S  S  S  S  S   
|------10--10-------12-------------14-*| 
|-------------------------------------*| 
|-9s11-----11-11-12----12-12s14-14----*| 
|-------------------------------------*| 
|-------------------------------------*| 
|-------------------------------------*| 


 
	  

Full key step upFull key step up
Half key step upHalf key step up
Half key step downHalf key step down
Full key step downFull key step down
Search Paypal
auto scroll beats size up size down change color hide chords drawings
tab show chords e-chords YouTube Clip e-chords hide all tabs e-chords go to top tab