The Rolling Stones

home > The Rolling Stones

Love In Vain Tab

The Rolling Stones

Difficulty: ExpertExpert

tuner correct add songbook print version text version save to e-mail
chordsukulelecavacokeyboardtabbassdrumsharmonicsflute Guitar Pro
chords

Love In Vain

Year: 1969 - Album: Let It Bleed [DSD]

  		 
Toque essa música num violão com seis cordas de aço e IMPRESSIONE-SE 
 com o resultado. 
Afinação normal (EADGBE) 
Basta tocar a introdução uma vez e a parte dos versos cinco vezes  
seguidas. 
NOTA: Durante a música, Keith Richards improvisa muito sobre os  
riffs aqui mostrados, mas não se preocupe, pois essa é a base da 
 música inteira. O solo de dobro é feito por Ron Wood e vou tentar  
transpassá-lo para o violão. Quando conseguir, vou incluí-lo aqui. 
 
 
     |Intro 
E|--------------------------------------0-------------------------------| 
B|------------0-----------0---------------------------------------------| 
G|----------0---0-------0---0-------2s4----4s2-0----------0h2-0------0--| 
D|--------0-------0---0--------------------------2----0h2--------0h2----| 
A|-------------------------------------------------3--------------------| 
E|---2h3------------3---------3-2-0-----------------------------------3-| 
 
                                         |Versos 
E|---3---3--1---1x---------------0----0--------------------------------------------------------| 
B|-----0----0---0x---------1---1----1------------0-----------0-------------0-----------0-------| 
G|----------0---0x-------2---2-----------------0---0-------0---0---------0---0-------0---0-----| 
D|---------------------0---------------------0-------0---0-------0-----0-------0---0-------0---| 
A|---------------------------------------------------------------------------------------------| 
E|-------------------2-------------------2h3-----------3-----------2h3-----------3-------------| 
                                                 Well, I followed her to the station 
 
E|---1-----1-----1------1-1---1-1-1-1-1---0-1---1---------------------------| 
B|-----3-----3-----3--------------------3-------------------1-----------1---| 
G|-------0-----0-----0------------------------------------0---0-------0-----| 
D|------------------------------------------------------2-------2---2-------| 
A|------------------------------------------------0-2-3-----------3---------| 
E|--------------------------------------------------------------------------| 
      With a suitcase in my hand            Well, I followed her to the station 
 
E|-------------2-----------0-----------------------0-------------------------| 
B|-----------3---3-------3---3---------0---------1---------------------------| 
G|---------2-------2---2-------2-----0---0-----2----------0------------------| 
D|---------------------------------0-------0------------0----0h2-0h2-0h2-0---| 
A|---3-2---------------------------------------------------------------------| 
E|-------2-----------2-----------3-----------2--------3----------------------| 
         With a suitcase in my hand  
 
E|---------------2-----------2-----------0-------------------------------| 
B|-------------3---3-------3---------------------------------------------| 
G|-----------2-------2---2-----------2s4---4s2-0---------0h2-0-----0-----| 
D|---------0-----------0-------------------------2---0h2-------0h2-------| 
A|-----0-2-----------------------------------------3---------------------| 
E|---3-------------------------3-2-0---------------------------------3---| 
Well, it's hard to tell, it's hard to tell, it's hard to tell 
 
E|---3---3--1---1x---3-------2-----------2-------| 
B|-----0----0---0x---------3---3-------3---3-----| 
G|----------0---0x-------2-------2---2-------2---| 
D|---------------------0-----------0-------------| 
A|-----------------------------------------------| 
E|-----------------------------------------------| 
       But all my love's in vain 
 
Na finalização, toque o compasso abaixo ao invés do compasso acima: 
 
E|---3---3--1---3-------0---3---| 
B|-----0----0---------1-----3---| 
G|----------0-------2-------0---| 
D|----------------0---------0---| 
A|--------------------------2---| 
E|--------------------------3---| 
 
Letras adicionais: 
 
When the train come in the station, I looked her in the eye. 
When the train come in the station, I looked her in the eye. 
Well, I felt so sad and lonesome, I could not help, but cry. 
 
(solo) 
 
When the train left the station, it had two lights on behind. 
When the train left the station, it had two lights on behind. 
Well, the blue light was my baby, and the red light was my mind. 
 
All my love's in vain. 
 
_______________________________________________________ 
Contribuição: Guilherme Porto Eddino([email protected]) 
	  

Search Paypal
auto scroll beats size up size down change color hide chords drawings
tab show chords e-chords YouTube Clip e-chords hide all tabs e-chords go to top tab