The Rolling Stones

home > The Rolling Stones

I Can't Get No Satisfaction Tab

The Rolling Stones

Difficulty: nolevelnolevel

by abelamin

tuner correct add songbook print version text version save to e-mail
chordsukulelecavacokeyboardtabbassdrumsharmonicsflute Guitar Pro
chords

I Can't Get No Satisfaction

  		 Intro 
  Q=132 
                                                  A D 
 4/4 
                                   Gtr III 
  W                 W                          
                                       | | | | | | | | 
                                       / / / / / / / / 

  Gtr I 
   E Q        +Q.             E Q       
|----------------|-----------------||------------------| 
|----------------|-----------------||o-----------------| 
|----------------|-----------------||------------------| 
|----------------|-----------------||------------------| 
|-2---2----2-4-5-|-(5)---5-5s4-4s2-||o-2---2-----2-4-5-| 
|----------------|-----------------||------------------| 


              A                          D/A              
  +E      E Q                           
   |  | | | | | |       | | | | | | | |    |  | | | | | | | 
   /  / / / / / /       / / / / / / / /    /  / / / / / / / 

  +Q.               E Q         +Q.          
|--------------------||-----------------|-------------------|| 
|-------------------o||-----------------|-------------------|| 
|--------------------||-----------------|-------------------|| 
|--------------------||-----------------|-------------------|| 
|-(5)-----5-5s4-4s2-o||-2---2-----2-4-5-|-(5)-----5-5s4-4s2-|| 
|--------------------||-----------------|-------------------|| 


   Chorus 
                                       A 
                                
    | | | | | | | |   | | | | | | | |   | | | | | | | | 
    / / / / / / / /   / / / / / / / /   / / / / / / / / 

                              Gtr II 
    Q   Q   H         H             Q   Q   Q   Q 
||------------------|-----------------|-----------------| 
||o-----------------|-----------------|-----------------| 
||------------------|-----------------|-----------------| 
||------------------|-----------------|-----------------| 
||o-2---------------|-----------7s4---|-----------------| 
||------------------|---------------7s|=5-------5---5---| 


                       
                                  
  | | | | | |   | |   | | | | | | | |   | | | | |   | | | 
  / / / / / /   / /   / / / / / / / /   / / / / /   / / / 

  Q   Q    E a     Q   Q         Q     E a    
|-------------------|-----------------|-------------------| 
|-------------------|-----------------|-------------------| 
|-------------------|---------7-7-7-7-|-7---7-------------| 
|-------------------|-----9---9-9-9-9-|-9---9-------------| 
|-----------4-4-7-4-|-7---7---7-7-7-7-|-7---7---4-4h7-4---| 
|-----5---5---------|-----------------|-------7---------7-| 


  A                                                    B7 
                                          
  | | | | | | | |   | | | | | | | |   | | | | | | | |   | | | | |   | | | 
  / / / / / / / /   / / / / / / / /   / / / / / / / /   / / / / /   / / / 

      PM------| 
  Q      E Q     Q      E Q          E Q        E S S    
|-----------------|-----------------|-----------------|-------------------| 
|-----------------|-----------------|-----3---2-3-----|-------------------| 
|-----------------|-----2-----------|-----1---1-1-----|-------------------| 
|-----2-2-2---2---|-----2-----2-----|-----0---0-0-----|-------2-4p2---2-4-| 
|-0---0-0-0-4-----|-----0-0-4-------|-----------------|-2-2-4-------4-----| 
|-----------------|-----------------|-0-0-------------|-------------------| 


                   A                          A     D               A 
                                  +E      E Q 
  | | | | | | | |   | | | | |   | | |   | | | | | | | |    |  | | | | | | 
  / / / / / / / /   / / / / /   / / /   / / / / / / / /    /  / / / / / / 

                                        Gtr I 
       E Q        E S S E Q     H             +Q.          
|-----------------|-------------------|-----------------|-------------------| 
|-----3---0-3-----|-------------------|-----------------|-------------------| 
|-----1---1-1-----|-------------------|-----------------|-------------------| 
|-----0---0-0-----|-------2-4p2---2---|-----------------|-------------------| 
|-----------------|-0-0-4-------4-----|-----------2-4-5-|-(5)-----5-5s4-4s2-| 
|-0-0-------------|-------------------|-----------------|-------------------| 


                                        1st - 3rd Verses 
         A     D               A               A     D               A 
            +E      E Q                +E      E Q 
  | | | | | | | |    |  | | | | | |      | | | | | | | |    |  | | | | | | 
  / / / / / / / /    /  / / / / / /      / / / / / / / /    /  / / / / / / 

    E Q        +Q.               E Q        +Q.          
|-----------------|-------------------||-----------------|--------------------| 
|-----------------|-------------------||-----------------|--------------------| 
|-----------------|-------------------||-----------------|--------------------| 
|-----------------|-------------------||-----------------|--------------------| 
|-2---2-----2-4-5-|-(5)-----5-5s4-4s2-||-2---2-----2-4-5-|-(5)-----5-5s4-4s2--| 
|-----------------|-------------------||-----------------|--------------------| 


         A     D               A              A     D               A 
            +E      E Q               +E      E Q 
  | | | | | | | |    |  | | | | | |     | | | | | | | |    |  | | | | | | 
  / / / / / / / /    /  / / / / / /     / / / / / / / /    /  / / / / / / 

    E Q        +Q.              E Q        +Q.          
|-----------------|-------------------|-----------------|--------------------| 
|-----------------|-------------------|-----------------|--------------------| 
|-----------------|-------------------|-----------------|--------------------| 
|-----------------|-------------------|-----------------|--------------------| 
|-2---2-----2-4-5-|-(5)-----5-5s4-4s2-|-2---2-----2-4-5-|-(5)-----5-5s4-4s2--| 
|-----------------|-------------------|-----------------|--------------------| 


         A     D               A              A     D               A 
            +E      E Q               +E      E Q 
  | | | | | | | |    |  | | | | | |     | | | | | | | |    |  | | | | | | 
  / / / / / / / /    /  / / / / / /     / / / / / / / /    /  / / / / / / 

    E Q        +Q.              E Q        +Q.          
|-----------------|-------------------|-----------------|--------------------| 
|-----------------|-------------------|-----------------|--------------------| 
|-----------------|-------------------|-----------------|--------------------| 
|-----------------|-------------------|-----------------|--------------------| 
|-2---2-----2-4-5-|-(5)-----5-5s4-4s2-|-2---2-----2-4-5-|-(5)-----5-5s4-4s2--| 
|-----------------|-------------------|-----------------|--------------------| 


         A     D               A          N.C. 
            +E      E Q     Q   Q  H      W 
  | | | | | | | |    |  | | | | | |     | 
  / / / / / / / /    /  / / / / / /     / 

    E Q        +Q.             E Q  H      W 
|-----------------|-------------------|-------------|------| 
|-----------------|-------------------|-------------|------| 
|-----------------|-------------------|-------------|------| 
|-----------------|-------------------|-------------|------| 
|-2---2-----2-4-5-|-(5)-----5-5s4-4s2-|-2-----------|------| 
|-----------------|-------------------|-------------|------| 


                                                         1.,2. 
         A     D               A              A     D               A 
            +E      E Q               +E      E Q 
  | | | | | | | |    |  | | | | | |     | | | | | | | |    |  | | | | | | 
  / / / / / / / /    /  / / / / / /     / / / / / / / /    /  / / / / / / 

    E Q        +Q.              E Q        +Q.            3x 
|-----------------|-------------------|-----------------|---------------------|| 
|-----------------|-------------------|-----------------|--------------------o|| 
|-----------------|-------------------|-----------------|---------------------|| 
|-----------------|-------------------|-----------------|---------------------|| 
|-2---2-----2-4-5-|-(5)-----5-5s4-4s2-|-2---2-----2-4-5-|-(5)-----5-5s4-4s2--o|| 
|-----------------|-------------------|-----------------|---------------------|| 


                       Outro 
  3. 
      D       A                A     D               A 
  +E      E Q                 +E      E Q 
   |  | | | | | |       | | | | | | | |    |  | | | | | | 
   /  / / / / / /       / / / / / / / /    /  / / / / / / 

   Q.                E Q        +Q.           7x 
|-------------------||------------------|--------------------|| 
|-------------------||o-----------------|-------------------o|| 
|-------------------||------------------|--------------------|| 
|-------------------||------------------|--------------------|| 
|-(5)-----5-5s4-4s2-||o-2---2-----2-4-5-|-(5)-----5-5s4-4s2-o|| 
|-------------------||------------------|--------------------|| 


 
	  

Full key step upFull key step up
Half key step upHalf key step up
Half key step downHalf key step down
Full key step downFull key step down
Search Paypal
auto scroll beats size up size down change color hide chords drawings
tab show chords e-chords YouTube Clip e-chords hide all tabs e-chords go to top tab