The Rolling Stones

home > The Rolling Stones

Flip The Switch Tab

The Rolling Stones

Difficulty: nolevelnolevel

by peretto

tuner correct add songbook print version text version save to e-mail
chordsukulelecavacokeyboardtabbassdrumsharmonicsflute Guitar Pro
chords

Flip The Switch

  		Rolling Stones - Flip The Switch 
Tom: E   
 
 
 
 
INTRO RIFF:   
  
 
      e|-------------------------------------|  
      B|--5---------------5------------------|  
      G|--4--2---7-5--4---4-4--2-4-4/7-5--2--|  
      D|-------------------------------------|  
      A|-------------------------------------|  
      E|-------------------------------------|   
                 
      e|-------------------------------------0-----|  
      B|--5-----------------5----------------------|  
      G|--4-4--2-4--7-5--4---4-4--2-4-4/7----------|  
      D|-------------------------------------------|  
      A|-------------------------------------------|  
      E|----------------------------------------0--|=(E)======>(ENTRA DIRETO NO VERSO)   
  
 
 
(Keith Richards no Refrão): 
 
        A                    B 
      e|-----------------------| 
      B|--------8-6------------| 
      G|-7~~~~------7-5--------| 
      D|----------------7-5----| 
      A|---------------------9-| 
      E|---------------------7-| 
 
 
        A                         B 
      e|----------------------------| 
      B|----5----5----5-------------| 
      G|-7b---7b---7b---7b-5-7b-5---| 
      D|----------------------------| 
      A|--------------------------9-| 
      E|--------------------------7-|              (variação) 
 
 
 
VERSO:  
       E  
       A scrap of flesh  
       And a heap of bones  
        A  
       One deep sigh  
       And a desperate moan  
  
         E  
       Three black eyes  
       And a busted nose  
              A  
       I said oh yeah, oh yeah  
  
  
Chorus:  
        A      B  
       Take me up  
                         A  
       Baby I'm ready to go  
                B  
       Shake me up  
                         A  
       Baby I'm ready to go, yeah  
               B  
       Take me up  
       Baby I'm ready  
        A  
       Baby, baby I'm ready to go  
           E         D  
     * ( Chill me, freeze me,      * OR PLAY OPENING RIFF  
            G Gm11  E             
       It's in my blood )  
         
     *  E   D   G   Gm11  E  
  
  
VERSO:  
       I'm not going to burn in hell  
       I cased the joint  
       And I know it well  
       Maybe my carcass  
       Would feed the worms  
       But I'm working   
       For the other firm  
  
  
Chorus:  
       Take me up  
       Baby I'm ready to go  
       Fix me up  
       Baby I'm ready to roll, yeah  
       Set me up  
       Baby, baby, baby I'm ready  
       Baby I'm ready to go  
       ( Chill me, freeze me,  
       It's in my blood )  
       Flip the switch  
  
  
INTERLUDE:  
       A  
       I got my money, my ticket  
       All that shit  
       B  
       I even got myself  
       A little shaving kit  
        D  
       What would it take   
       To bury me  
       G  
       I can't wait  
                        E      INTRO RIFF: 2x's  
       I can't wait to see  
  
  
       I got a toothbrush, mouthwash  
       All that shit  
       I'm looking down  
       In the filthy pit  
       I had the turkey  
       And the stuffing too  
       I even saved  
       A little bit for you     INTRO RIFF: 3x's  
  
  
VERSO:  
       Lethal injection is a luxury  
       I wanna give it  
       To the whole jury  
       I'm just dying  
       For one more squeeze  
       Oh yeah  
       Oh yeah  
  
Chorus:  
       Pick me up  
       Baby I'm ready to go  
       Take me up  
       Baby I'm ready to blow  
       Take me up  
       Baby if you're ready to go  
       Baby I'm nowhere to go  
       Baby I'm ready to go  
       ( Chill me, freeze me,  
       To my bones )                 
       Flip the switch       INTRO RIFF: 9x's 
  
 
_______________________________________________________________________________________ 
 

	  

Full key step upFull key step up
Half key step upHalf key step up
Half key step downHalf key step down
Full key step downFull key step down
Search Paypal
auto scroll beats size up size down change color hide chords drawings
tab show chords e-chords YouTube Clip e-chords hide all tabs e-chords go to top tab